  0
SECTION
  2
HEADER
  9
$ACADVER
  1
AC1024
  9
$ACADMAINTVER
 70
     6
  9
$DWGCODEPAGE
  3
ANSI_1252
  9
$INSBASE
 10
0.0
 20
0.0
 30
0.0
  9
$EXTMIN
 10
1.000000000000000E+20
 20
1.000000000000000E+20
 30
1.000000000000000E+20
  9
$EXTMAX
 10
-1.000000000000000E+20
 20
-1.000000000000000E+20
 30
-1.000000000000000E+20
  9
$LIMMIN
 10
0.0
 20
0.0
  9
$LIMMAX
 10
12.0
 20
9.0
  9
$ORTHOMODE
 70
     0
  9
$REGENMODE
 70
     1
  9
$FILLMODE
 70
     1
  9
$QTEXTMODE
 70
     0
  9
$MIRRTEXT
 70
     1
  9
$LTSCALE
 40
1.0
  9
$ATTMODE
 70
     1
  9
$TEXTSIZE
 40
0.2
  9
$TRACEWID
 40
0.05
  9
$TEXTSTYLE
  7
Standard
  9
$CLAYER
  8
0
  9
$CELTYPE
  6
ByLayer
  9
$CECOLOR
 62
   256
  9
$CELTSCALE
 40
1.0
  9
$DISPSILH
 70
     0
  9
$DIMSCALE
 40
1.0
  9
$DIMASZ
 40
0.18
  9
$DIMEXO
 40
0.0625
  9
$DIMDLI
 40
0.38
  9
$DIMRND
 40
0.0
  9
$DIMDLE
 40
0.0
  9
$DIMEXE
 40
0.18
  9
$DIMTP
 40
0.0
  9
$DIMTM
 40
0.0
  9
$DIMTXT
 40
0.18
  9
$DIMCEN
 40
0.09
  9
$DIMTSZ
 40
0.0
  9
$DIMTOL
 70
     0
  9
$DIMLIM
 70
     0
  9
$DIMTIH
 70
     1
  9
$DIMTOH
 70
     1
  9
$DIMSE1
 70
     0
  9
$DIMSE2
 70
     0
  9
$DIMTAD
 70
     0
  9
$DIMZIN
 70
     0
  9
$DIMBLK
  1

  9
$DIMASO
 70
     1
  9
$DIMSHO
 70
     1
  9
$DIMPOST
  1

  9
$DIMAPOST
  1

  9
$DIMALT
 70
     0
  9
$DIMALTD
 70
     2
  9
$DIMALTF
 40
25.4
  9
$DIMLFAC
 40
1.0
  9
$DIMTOFL
 70
     0
  9
$DIMTVP
 40
0.0
  9
$DIMTIX
 70
     0
  9
$DIMSOXD
 70
     0
  9
$DIMSAH
 70
     0
  9
$DIMBLK1
  1

  9
$DIMBLK2
  1

  9
$DIMSTYLE
  2
Standard
  9
$DIMCLRD
 70
     0
  9
$DIMCLRE
 70
     0
  9
$DIMCLRT
 70
     0
  9
$DIMTFAC
 40
1.0
  9
$DIMGAP
 40
0.09
  9
$DIMJUST
 70
     0
  9
$DIMSD1
 70
     0
  9
$DIMSD2
 70
     0
  9
$DIMTOLJ
 70
     1
  9
$DIMTZIN
 70
     0
  9
$DIMALTZ
 70
     0
  9
$DIMALTTZ
 70
     0
  9
$DIMUPT
 70
     0
  9
$DIMDEC
 70
     4
  9
$DIMTDEC
 70
     4
  9
$DIMALTU
 70
     2
  9
$DIMALTTD
 70
     2
  9
$DIMTXSTY
  7
Standard
  9
$DIMAUNIT
 70
     0
  9
$DIMADEC
 70
     0
  9
$DIMALTRND
 40
0.0
  9
$DIMAZIN
 70
     0
  9
$DIMDSEP
 70
    46
  9
$DIMATFIT
 70
     3
  9
$DIMFRAC
 70
     0
  9
$DIMLDRBLK
  1

  9
$DIMLUNIT
 70
     2
  9
$DIMLWD
 70
    -2
  9
$DIMLWE
 70
    -2
  9
$DIMTMOVE
 70
     0
  9
$DIMFXL
 40
1.0
  9
$DIMFXLON
 70
     0
  9
$DIMJOGANG
 40
0.7853981633974483
  9
$DIMTFILL
 70
     0
  9
$DIMTFILLCLR
 70
     0
  9
$DIMARCSYM
 70
     0
  9
$DIMLTYPE
  6

  9
$DIMLTEX1
  6

  9
$DIMLTEX2
  6

  9
$DIMTXTDIRECTION
 70
     0
  9
$LUNITS
 70
     2
  9
$LUPREC
 70
     4
  9
$SKETCHINC
 40
0.1
  9
$FILLETRAD
 40
0.5
  9
$AUNITS
 70
     0
  9
$AUPREC
 70
     0
  9
$MENU
  1
.
  9
$ELEVATION
 40
0.0
  9
$PELEVATION
 40
0.0
  9
$THICKNESS
 40
0.0
  9
$LIMCHECK
 70
     0
  9
$CHAMFERA
 40
0.5
  9
$CHAMFERB
 40
0.5
  9
$CHAMFERC
 40
1.0
  9
$CHAMFERD
 40
0.0
  9
$SKPOLY
 70
     0
  9
$TDCREATE
 40
2457696.593638171
  9
$TDUCREATE
 40
2457696.760304838
  9
$TDUPDATE
 40
2457696.593638252
  9
$TDUUPDATE
 40
2457696.760304919
  9
$TDINDWG
 40
0.0000000116
  9
$TDUSRTIMER
 40
0.0000000116
  9
$USRTIMER
 70
     1
  9
$ANGBASE
 50
0.0
  9
$ANGDIR
 70
     0
  9
$PDMODE
 70
     0
  9
$PDSIZE
 40
0.0
  9
$PLINEWID
 40
0.0
  9
$SPLFRAME
 70
     0
  9
$SPLINETYPE
 70
     6
  9
$SPLINESEGS
 70
     8
  9
$HANDSEED
  5
346
  9
$SURFTAB1
 70
     6
  9
$SURFTAB2
 70
     6
  9
$SURFTYPE
 70
     6
  9
$SURFU
 70
     6
  9
$SURFV
 70
     6
  9
$UCSBASE
  2

  9
$UCSNAME
  2

  9
$UCSORG
 10
0.0
 20
0.0
 30
0.0
  9
$UCSXDIR
 10
1.0
 20
0.0
 30
0.0
  9
$UCSYDIR
 10
0.0
 20
1.0
 30
0.0
  9
$UCSORTHOREF
  2

  9
$UCSORTHOVIEW
 70
     0
  9
$UCSORGTOP
 10
0.0
 20
0.0
 30
0.0
  9
$UCSORGBOTTOM
 10
0.0
 20
0.0
 30
0.0
  9
$UCSORGLEFT
 10
0.0
 20
0.0
 30
0.0
  9
$UCSORGRIGHT
 10
0.0
 20
0.0
 30
0.0
  9
$UCSORGFRONT
 10
0.0
 20
0.0
 30
0.0
  9
$UCSORGBACK
 10
0.0
 20
0.0
 30
0.0
  9
$PUCSBASE
  2

  9
$PUCSNAME
  2

  9
$PUCSORG
 10
0.0
 20
0.0
 30
0.0
  9
$PUCSXDIR
 10
1.0
 20
0.0
 30
0.0
  9
$PUCSYDIR
 10
0.0
 20
1.0
 30
0.0
  9
$PUCSORTHOREF
  2

  9
$PUCSORTHOVIEW
 70
     0
  9
$PUCSORGTOP
 10
0.0
 20
0.0
 30
0.0
  9
$PUCSORGBOTTOM
 10
0.0
 20
0.0
 30
0.0
  9
$PUCSORGLEFT
 10
0.0
 20
0.0
 30
0.0
  9
$PUCSORGRIGHT
 10
0.0
 20
0.0
 30
0.0
  9
$PUCSORGFRONT
 10
0.0
 20
0.0
 30
0.0
  9
$PUCSORGBACK
 10
0.0
 20
0.0
 30
0.0
  9
$USERI1
 70
     0
  9
$USERI2
 70
     0
  9
$USERI3
 70
     0
  9
$USERI4
 70
     0
  9
$USERI5
 70
     0
  9
$USERR1
 40
0.0
  9
$USERR2
 40
0.0
  9
$USERR3
 40
0.0
  9
$USERR4
 40
0.0
  9
$USERR5
 40
0.0
  9
$WORLDVIEW
 70
     1
  9
$SHADEDGE
 70
     3
  9
$SHADEDIF
 70
    70
  9
$TILEMODE
 70
     1
  9
$MAXACTVP
 70
    64
  9
$PINSBASE
 10
0.0
 20
0.0
 30
0.0
  9
$PLIMCHECK
 70
     0
  9
$PEXTMIN
 10
1.000000000000000E+20
 20
1.000000000000000E+20
 30
1.000000000000000E+20
  9
$PEXTMAX
 10
-1.000000000000000E+20
 20
-1.000000000000000E+20
 30
-1.000000000000000E+20
  9
$PLIMMIN
 10
0.0
 20
0.0
  9
$PLIMMAX
 10
12.0
 20
9.0
  9
$UNITMODE
 70
     0
  9
$VISRETAIN
 70
     1
  9
$PLINEGEN
 70
     0
  9
$PSLTSCALE
 70
     1
  9
$TREEDEPTH
 70
  3020
  9
$CMLSTYLE
  2
Standard
  9
$CMLJUST
 70
     0
  9
$CMLSCALE
 40
1.0
  9
$PROXYGRAPHICS
 70
     1
  9
$MEASUREMENT
 70
     0
  9
$CELWEIGHT
370
    -1
  9
$ENDCAPS
280
     0
  9
$JOINSTYLE
280
     0
  9
$LWDISPLAY
290
     1
  9
$INSUNITS
 70
     1
  9
$HYPERLINKBASE
  1

  9
$STYLESHEET
  1

  9
$XEDIT
290
     1
  9
$CEPSNTYPE
380
     0
  9
$PSTYLEMODE
290
     1
  9
$FINGERPRINTGUID
  2
{8519370F-9BED-400E-9D44-A29261C7E37C}
  9
$VERSIONGUID
  2
{FAEB1C32-E019-11D5-929B-00C0DF256EC4}
  9
$EXTNAMES
290
     1
  9
$PSVPSCALE
 40
0.0
  9
$OLESTARTUP
290
     0
  9
$SORTENTS
280
   127
  9
$INDEXCTL
280
     0
  9
$HIDETEXT
280
     1
  9
$XCLIPFRAME
280
     2
  9
$HALOGAP
280
     0
  9
$OBSCOLOR
 70
   257
  9
$OBSLTYPE
280
     0
  9
$INTERSECTIONDISPLAY
280
     0
  9
$INTERSECTIONCOLOR
 70
   257
  9
$DIMASSOC
280
     2
  9
$PROJECTNAME
  1

  9
$CAMERADISPLAY
290
     0
  9
$LENSLENGTH
 40
50.0
  9
$CAMERAHEIGHT
 40
0.0
  9
$STEPSPERSEC
 40
2.0
  9
$STEPSIZE
 40
6.0
  9
$3DDWFPREC
 40
2.0
  9
$PSOLWIDTH
 40
0.25
  9
$PSOLHEIGHT
 40
4.0
  9
$LOFTANG1
 40
1.570796326794897
  9
$LOFTANG2
 40
1.570796326794897
  9
$LOFTMAG1
 40
0.0
  9
$LOFTMAG2
 40
0.0
  9
$LOFTPARAM
 70
     7
  9
$LOFTNORMALS
280
     1
  9
$LATITUDE
 40
37.795
  9
$LONGITUDE
 40
-122.394
  9
$NORTHDIRECTION
 40
0.0
  9
$TIMEZONE
 70
 -8000
  9
$LIGHTGLYPHDISPLAY
280
     1
  9
$TILEMODELIGHTSYNCH
280
     1
  9
$CMATERIAL
347
3C
  9
$SOLIDHIST
280
     1
  9
$SHOWHIST
280
     1
  9
$DWFFRAME
280
     2
  9
$DGNFRAME
280
     2
  9
$REALWORLDSCALE
290
     1
  9
$INTERFERECOLOR
 62
   256
  9
$CSHADOW
280
     0
  9
$SHADOWPLANELOCATION
 40
0.0
  0
ENDSEC
  0
SECTION
  2
CLASSES
  0
CLASS
  1
ACDBDICTIONARYWDFLT
  2
AcDbDictionaryWithDefault
  3
ObjectDBX Classes
 90
        0
 91
        4
280
     0
281
     0
  0
CLASS
  1
VISUALSTYLE
  2
AcDbVisualStyle
  3
ObjectDBX Classes
 90
     4095
 91
        4
280
     0
281
     0
  0
CLASS
  1
MATERIAL
  2
AcDbMaterial
  3
ObjectDBX Classes
 90
     1153
 91
        4
280
     0
281
     0
  0
CLASS
  1
SUN
  2
AcDbSun
  3
SCENEOE
 90
     1024
 91
        4
280
     0
281
     0
  0
ENDSEC
  0
SECTION
  2
TABLES
  0
TABLE
  2
VPORT
  5
8
330
0
100
AcDbSymbolTable
 70
     1
  0
VPORT
  5
29
330
8
100
AcDbSymbolTableRecord
100
AcDbViewportTableRecord
  2
*Active
 70
     0
 10
0.0
 20
0.0
 11
1.0
 21
1.0
 12
0.0
 22
0.0
 13
0.0
 23
0.0
 14
0.5
 24
0.5
 15
0.5
 25
0.5
 16
0.0
 26
0.0
 36
1.0
 17
23.62201388888889
 27
-17.71652777777778
 37
0.0
 40
35.43305555555555
 41
1.333332026748407
 42
50.0
 43
0.0
 44
0.0
 50
0.0
 51
0.0
 71
     0
 72
   100
 73
     1
 74
     3
 75
     0
 76
     0
 77
     0
 78
     0
281
     0
 65
     1
110
0.0
120
0.0
130
0.0
111
1.0
121
0.0
131
0.0
112
0.0
122
1.0
132
0.0
 79
     0
146
0.0
 60
     3
 61
     5
292
     1
282
     1
141
0.0
142
0.0
 63
   250
361
3F
  0
ENDTAB
  0
TABLE
  2
LTYPE
  5
5
330
0
100
AcDbSymbolTable
 70
     1
  0
LTYPE
  5
14
330
5
100
AcDbSymbolTableRecord
100
AcDbLinetypeTableRecord
  2
ByBlock
 70
     0
  3

 72
    65
 73
     0
 40
0.0
  0
LTYPE
  5
15
330
5
100
AcDbSymbolTableRecord
100
AcDbLinetypeTableRecord
  2
ByLayer
 70
     0
  3

 72
    65
 73
     0
 40
0.0
  0
LTYPE
  5
16
330
5
100
AcDbSymbolTableRecord
100
AcDbLinetypeTableRecord
  2
Continuous
 70
     0
  3
Solid line
 72
    65
 73
     0
 40
0.0
  0
ENDTAB
  0
TABLE
  2
LAYER
  5
2
330
0
100
AcDbSymbolTable
 70
     2
  0
LAYER
  5
10
330
2
100
AcDbSymbolTableRecord
100
AcDbLayerTableRecord
  2
0
 70
     0
 62
     7
  6
Continuous
370
    -3
390
F
347
3E
  0
LAYER
  5
40
330
2
100
AcDbSymbolTableRecord
100
AcDbLayerTableRecord
  2
Layer 1
 70
     0
 62
     7
  6
Continuous
370
    -3
390
F
347
3E
  0
ENDTAB
  0
TABLE
  2
STYLE
  5
3
330
0
100
AcDbSymbolTable
 70
     1
  0
STYLE
  5
11
330
3
100
AcDbSymbolTableRecord
100
AcDbTextStyleTableRecord
  2
Standard
 70
     0
 40
0.0
 41
1.0
 50
0.0
 71
     0
 42
0.2
  3
txt
  4

  0
ENDTAB
  0
TABLE
  2
VIEW
  5
6
330
0
100
AcDbSymbolTable
 70
     0
  0
ENDTAB
  0
TABLE
  2
UCS
  5
7
330
0
100
AcDbSymbolTable
 70
     0
  0
ENDTAB
  0
TABLE
  2
APPID
  5
9
330
0
100
AcDbSymbolTable
 70
     1
  0
APPID
  5
12
330
9
100
AcDbSymbolTableRecord
100
AcDbRegAppTableRecord
  2
ACAD
 70
     0
  0
ENDTAB
  0
TABLE
  2
DIMSTYLE
  5
A
330
0
100
AcDbSymbolTable
 70
     1
100
AcDbDimStyleTable
  0
DIMSTYLE
105
27
330
A
100
AcDbSymbolTableRecord
100
AcDbDimStyleTableRecord
  2
Standard
 70
     0
178
     0
340
11
  0
ENDTAB
  0
TABLE
  2
BLOCK_RECORD
  5
1
330
0
100
AcDbSymbolTable
 70
     1
  0
BLOCK_RECORD
  5
1F
330
1
100
AcDbSymbolTableRecord
100
AcDbBlockTableRecord
  2
*Model_Space
340
22
 70
     0
280
     1
281
     0
  0
BLOCK_RECORD
  5
1B
330
1
100
AcDbSymbolTableRecord
100
AcDbBlockTableRecord
  2
*Paper_Space
340
1E
 70
     0
280
     1
281
     0
  0
BLOCK_RECORD
  5
23
330
1
100
AcDbSymbolTableRecord
100
AcDbBlockTableRecord
  2
*Paper_Space0
340
26
 70
     0
280
     1
281
     0
  0
ENDTAB
  0
ENDSEC
  0
SECTION
  2
BLOCKS
  0
BLOCK
  5
20
330
1F
100
AcDbEntity
  8
0
100
AcDbBlockBegin
  2
*Model_Space
 70
     0
 10
0.0
 20
0.0
 30
0.0
  3
*Model_Space
  1

  0
ENDBLK
  5
21
330
1F
100
AcDbEntity
  8
0
100
AcDbBlockEnd
  0
BLOCK
  5
1C
330
1B
100
AcDbEntity
 67
     1
  8
0
100
AcDbBlockBegin
  2
*Paper_Space
 70
     0
 10
0.0
 20
0.0
 30
0.0
  3
*Paper_Space
  1

  0
ENDBLK
  5
1D
330
1B
100
AcDbEntity
 67
     1
  8
0
100
AcDbBlockEnd
  0
BLOCK
  5
24
330
23
100
AcDbEntity
  8
0
100
AcDbBlockBegin
  2
*Paper_Space0
 70
     0
 10
0.0
 20
0.0
 30
0.0
  3
*Paper_Space0
  1

  0
ENDBLK
  5
25
330
23
100
AcDbEntity
  8
0
100
AcDbBlockEnd
  0
ENDSEC
  0
SECTION
  2
ENTITIES
  0
POLYLINE
  5
41
330
1F
100
AcDbEntity
  8
Layer 1
 62
   250
420
  2301728
370
    35
100
AcDb2dPolyline
 66
     1
 10
0.0
 20
0.0
 30
0.0
  0
VERTEX
  5
42
330
41
100
AcDbEntity
  8
Layer 1
 62
   250
420
  2301728
370
    35
100
AcDbVertex
100
AcDb2dVertex
 10
14.76927598317458
 20
-11.53001827663845
 30
0.0
  0
VERTEX
  5
43
330
41
100
AcDbEntity
  8
Layer 1
 62
   250
420
  2301728
370
    35
100
AcDbVertex
100
AcDb2dVertex
 10
14.76927598317458
 20
-11.26755099826389
 30
0.0
  0
VERTEX
  5
44
330
41
100
AcDbEntity
  8
Layer 1
 62
   250
420
  2301728
370
    35
100
AcDbVertex
100
AcDb2dVertex
 10
4.139354175991482
 20
-11.26755099826389
 30
0.0
  0
VERTEX
  5
45
330
41
100
AcDbEntity
  8
Layer 1
 62
   250
420
  2301728
370
    35
100
AcDbVertex
100
AcDb2dVertex
 10
4.139354175991482
 20
-11.53001827663845
 30
0.0
  0
VERTEX
  5
46
330
41
100
AcDbEntity
  8
Layer 1
 62
   250
420
  2301728
370
    35
100
AcDbVertex
100
AcDb2dVertex
 10
4.290929052564833
 20
-11.53001827663845
 30
0.0
  0
VERTEX
  5
47
330
41
100
AcDbEntity
  8
Layer 1
 62
   250
420
  2301728
370
    35
100
AcDbVertex
100
AcDb2dVertex
 10
4.290929052564833
 20
-11.79248555501302
 30
0.0
  0
VERTEX
  5
48
330
41
100
AcDbEntity
  8
Layer 1
 62
   250
420
  2301728
370
    35
100
AcDbVertex
100
AcDb2dVertex
 10
4.139354175991482
 20
-11.79248555501302
 30
0.0
  0
VERTEX
  5
49
330
41
100
AcDbEntity
  8
Layer 1
 62
   250
420
  2301728
370
    35
100
AcDbVertex
100
AcDb2dVertex
 10
4.139354175991482
 20
-12.05495283338759
 30
0.0
  0
VERTEX
  5
4A
330
41
100
AcDbEntity
  8
Layer 1
 62
   250
420
  2301728
370
    35
100
AcDbVertex
100
AcDb2dVertex
 10
4.139354175991482
 20
-12.20652770996094
 30
0.0
  0
VERTEX
  5
4B
330
41
100
AcDbEntity
  8
Layer 1
 62
   250
420
  2301728
370
    35
100
AcDbVertex
100
AcDb2dVertex
 10
5.320456504821777
 20
-12.20652770996094
 30
0.0
  0
VERTEX
  5
4C
330
41
100
AcDbEntity
  8
Layer 1
 62
   250
420
  2301728
370
    35
100
AcDbVertex
100
AcDb2dVertex
 10
5.320456504821777
 20
-12.05495283338759
 30
0.0
  0
VERTEX
  5
4D
330
41
100
AcDbEntity
  8
Layer 1
 62
   250
420
  2301728
370
    35
100
AcDbVertex
100
AcDb2dVertex
 10
6.501563919915093
 20
-12.05495283338759
 30
0.0
  0
VERTEX
  5
4E
330
41
100
AcDbEntity
  8
Layer 1
 62
   250
420
  2301728
370
    35
100
AcDbVertex
100
AcDb2dVertex
 10
6.501563919915093
 20
-12.20652770996094
 30
0.0
  0
VERTEX
  5
4F
330
41
100
AcDbEntity
  8
Layer 1
 62
   250
420
  2301728
370
    35
100
AcDbVertex
100
AcDb2dVertex
 10
7.682666248745388
 20
-12.20652770996094
 30
0.0
  0
VERTEX
  5
50
330
41
100
AcDbEntity
  8
Layer 1
 62
   250
420
  2301728
370
    35
100
AcDbVertex
100
AcDb2dVertex
 10
7.682666248745388
 20
-12.05495283338759
 30
0.0
  0
VERTEX
  5
51
330
41
100
AcDbEntity
  8
Layer 1
 62
   250
420
  2301728
370
    35
100
AcDbVertex
100
AcDb2dVertex
 10
8.863763491312662
 20
-12.05495283338759
 30
0.0
  0
VERTEX
  5
52
330
41
100
AcDbEntity
  8
Layer 1
 62
   250
420
  2301728
370
    35
100
AcDbVertex
100
AcDb2dVertex
 10
8.863763491312662
 20
-12.20652770996094
 30
0.0
  0
VERTEX
  5
53
330
41
100
AcDbEntity
  8
Layer 1
 62
   250
420
  2301728
370
    35
100
AcDbVertex
100
AcDb2dVertex
 10
10.04486582014296
 20
-12.20652770996094
 30
0.0
  0
VERTEX
  5
54
330
41
100
AcDbEntity
  8
Layer 1
 62
   250
420
  2301728
370
    35
100
AcDbVertex
100
AcDb2dVertex
 10
10.04486582014296
 20
-12.05495283338759
 30
0.0
  0
VERTEX
  5
55
330
41
100
AcDbEntity
  8
Layer 1
 62
   250
420
  2301728
370
    35
100
AcDbVertex
100
AcDb2dVertex
 10
11.22597323523627
 20
-12.05495283338759
 30
0.0
  0
VERTEX
  5
56
330
41
100
AcDbEntity
  8
Layer 1
 62
   250
420
  2301728
370
    35
100
AcDbVertex
100
AcDb2dVertex
 10
11.22597323523627
 20
-12.20652770996094
 30
0.0
  0
VERTEX
  5
57
330
41
100
AcDbEntity
  8
Layer 1
 62
   250
420
  2301728
370
    35
100
AcDbVertex
100
AcDb2dVertex
 10
12.40707556406657
 20
-12.20652770996094
 30
0.0
  0
VERTEX
  5
58
330
41
100
AcDbEntity
  8
Layer 1
 62
   250
420
  2301728
370
    35
100
AcDbVertex
100
AcDb2dVertex
 10
12.40707556406657
 20
-12.05495283338759
 30
0.0
  0
VERTEX
  5
59
330
41
100
AcDbEntity
  8
Layer 1
 62
   250
420
  2301728
370
    35
100
AcDbVertex
100
AcDb2dVertex
 10
13.58817280663384
 20
-12.05495283338759
 30
0.0
  0
VERTEX
  5
5A
330
41
100
AcDbEntity
  8
Layer 1
 62
   250
420
  2301728
370
    35
100
AcDbVertex
100
AcDb2dVertex
 10
13.58817280663384
 20
-12.20652770996094
 30
0.0
  0
VERTEX
  5
5B
330
41
100
AcDbEntity
  8
Layer 1
 62
   250
420
  2301728
370
    35
100
AcDbVertex
100
AcDb2dVertex
 10
14.76927598317458
 20
-12.20652770996094
 30
0.0
  0
VERTEX
  5
5C
330
41
100
AcDbEntity
  8
Layer 1
 62
   250
420
  2301728
370
    35
100
AcDbVertex
100
AcDb2dVertex
 10
14.76927598317458
 20
-12.05495283338759
 30
0.0
  0
VERTEX
  5
5D
330
41
100
AcDbEntity
  8
Layer 1
 62
   250
420
  2301728
370
    35
100
AcDbVertex
100
AcDb2dVertex
 10
14.76927598317458
 20
-12.05495283338759
 30
0.0
  0
VERTEX
  5
5E
330
41
100
AcDbEntity
  8
Layer 1
 62
   250
420
  2301728
370
    35
100
AcDbVertex
100
AcDb2dVertex
 10
14.76927598317458
 20
-11.79248555501302
 30
0.0
  0
VERTEX
  5
5F
330
41
100
AcDbEntity
  8
Layer 1
 62
   250
420
  2301728
370
    35
100
AcDbVertex
100
AcDb2dVertex
 10
14.61770025889084
 20
-11.79248555501302
 30
0.0
  0
VERTEX
  5
60
330
41
100
AcDbEntity
  8
Layer 1
 62
   250
420
  2301728
370
    35
100
AcDbVertex
100
AcDb2dVertex
 10
14.61770025889084
 20
-11.53001827663845
 30
0.0
  0
VERTEX
  5
61
330
41
100
AcDbEntity
  8
Layer 1
 62
   250
420
  2301728
370
    35
100
AcDbVertex
100
AcDb2dVertex
 10
14.76927598317458
 20
-11.53001827663845
 30
0.0
  0
SEQEND
  5
62
330
41
100
AcDbEntity
  8
Layer 1
 62
   250
420
  2301728
370
    35
  0
POLYLINE
  5
63
330
1F
100
AcDbEntity
  8
Layer 1
 62
   250
420
  2301728
370
    35
100
AcDb2dPolyline
 66
     1
 10
0.0
 20
0.0
 30
0.0
  0
VERTEX
  5
64
330
63
100
AcDbEntity
  8
Layer 1
 62
   250
420
  2301728
370
    35
100
AcDbVertex
100
AcDb2dVertex
 10
4.13935375213623
 20
-13.2336917453342
 30
0.0
  0
VERTEX
  5
65
330
63
100
AcDbEntity
  8
Layer 1
 62
   250
420
  2301728
370
    35
100
AcDbVertex
100
AcDb2dVertex
 10
4.13935375213623
 20
-13.49615902370877
 30
0.0
  0
VERTEX
  5
66
330
63
100
AcDbEntity
  8
Layer 1
 62
   250
420
  2301728
370
    35
100
AcDbVertex
100
AcDb2dVertex
 10
4.13935375213623
 20
-13.64773390028212
 30
0.0
  0
VERTEX
  5
67
330
63
100
AcDbEntity
  8
Layer 1
 62
   250
420
  2301728
370
    35
100
AcDbVertex
100
AcDb2dVertex
 10
5.320456080966525
 20
-13.64773390028212
 30
0.0
  0
VERTEX
  5
68
330
63
100
AcDbEntity
  8
Layer 1
 62
   250
420
  2301728
370
    35
100
AcDbVertex
100
AcDb2dVertex
 10
5.320456080966525
 20
-13.49615902370877
 30
0.0
  0
VERTEX
  5
69
330
63
100
AcDbEntity
  8
Layer 1
 62
   250
420
  2301728
370
    35
100
AcDbVertex
100
AcDb2dVertex
 10
6.501563496059841
 20
-13.49615902370877
 30
0.0
  0
VERTEX
  5
6A
330
63
100
AcDbEntity
  8
Layer 1
 62
   250
420
  2301728
370
    35
100
AcDbVertex
100
AcDb2dVertex
 10
6.501563496059841
 20
-13.64773390028212
 30
0.0
  0
VERTEX
  5
6B
330
63
100
AcDbEntity
  8
Layer 1
 62
   250
420
  2301728
370
    35
100
AcDbVertex
100
AcDb2dVertex
 10
7.682665824890137
 20
-13.64773390028212
 30
0.0
  0
VERTEX
  5
6C
330
63
100
AcDbEntity
  8
Layer 1
 62
   250
420
  2301728
370
    35
100
AcDbVertex
100
AcDb2dVertex
 10
7.682665824890137
 20
-13.49615902370877
 30
0.0
  0
VERTEX
  5
6D
330
63
100
AcDbEntity
  8
Layer 1
 62
   250
420
  2301728
370
    35
100
AcDbVertex
100
AcDb2dVertex
 10
8.863763915167914
 20
-13.49615902370877
 30
0.0
  0
VERTEX
  5
6E
330
63
100
AcDbEntity
  8
Layer 1
 62
   250
420
  2301728
370
    35
100
AcDbVertex
100
AcDb2dVertex
 10
8.863763915167914
 20
-13.64773390028212
 30
0.0
  0
VERTEX
  5
6F
330
63
100
AcDbEntity
  8
Layer 1
 62
   250
420
  2301728
370
    35
100
AcDbVertex
100
AcDb2dVertex
 10
10.04486624399821
 20
-13.64773390028212
 30
0.0
  0
VERTEX
  5
70
330
63
100
AcDbEntity
  8
Layer 1
 62
   250
420
  2301728
370
    35
100
AcDbVertex
100
AcDb2dVertex
 10
10.04486624399821
 20
-13.49615902370877
 30
0.0
  0
VERTEX
  5
71
330
63
100
AcDbEntity
  8
Layer 1
 62
   250
420
  2301728
370
    35
100
AcDbVertex
100
AcDb2dVertex
 10
11.22597281138102
 20
-13.49615902370877
 30
0.0
  0
VERTEX
  5
72
330
63
100
AcDbEntity
  8
Layer 1
 62
   250
420
  2301728
370
    35
100
AcDbVertex
100
AcDb2dVertex
 10
11.22597281138102
 20
-13.64773390028212
 30
0.0
  0
VERTEX
  5
73
330
63
100
AcDbEntity
  8
Layer 1
 62
   250
420
  2301728
370
    35
100
AcDbVertex
100
AcDb2dVertex
 10
12.40707514021132
 20
-13.64773390028212
 30
0.0
  0
VERTEX
  5
74
330
63
100
AcDbEntity
  8
Layer 1
 62
   250
420
  2301728
370
    35
100
AcDbVertex
100
AcDb2dVertex
 10
12.40707514021132
 20
-13.49615902370877
 30
0.0
  0
VERTEX
  5
75
330
63
100
AcDbEntity
  8
Layer 1
 62
   250
420
  2301728
370
    35
100
AcDbVertex
100
AcDb2dVertex
 10
13.58817323048909
 20
-13.49615902370877
 30
0.0
  0
VERTEX
  5
76
330
63
100
AcDbEntity
  8
Layer 1
 62
   250
420
  2301728
370
    35
100
AcDbVertex
100
AcDb2dVertex
 10
13.58817323048909
 20
-13.64773390028212
 30
0.0
  0
VERTEX
  5
77
330
63
100
AcDbEntity
  8
Layer 1
 62
   250
420
  2301728
370
    35
100
AcDbVertex
100
AcDb2dVertex
 10
14.76927640702987
 20
-13.64773390028212
 30
0.0
  0
VERTEX
  5
78
330
63
100
AcDbEntity
  8
Layer 1
 62
   250
420
  2301728
370
    35
100
AcDbVertex
100
AcDb2dVertex
 10
14.76927640702987
 20
-13.49615902370877
 30
0.0
  0
VERTEX
  5
79
330
63
100
AcDbEntity
  8
Layer 1
 62
   250
420
  2301728
370
    35
100
AcDbVertex
100
AcDb2dVertex
 10
14.76927640702987
 20
-13.2336917453342
 30
0.0
  0
VERTEX
  5
7A
330
63
100
AcDbEntity
  8
Layer 1
 62
   250
420
  2301728
370
    35
100
AcDbVertex
100
AcDb2dVertex
 10
4.13935375213623
 20
-13.2336917453342
 30
0.0
  0
SEQEND
  5
7B
330
63
100
AcDbEntity
  8
Layer 1
 62
   250
420
  2301728
370
    35
  0
SPLINE
  5
7C
330
1F
100
AcDbEntity
  8
Layer 1
 62
    93
420
  6929733
370
    35
100
AcDbSpline
210
0.0
220
0.0
230
1.0
 70
    11
 71
     3
 72
    17
 73
    13
 74
     0
 42
0.0000000001
 43
0.0000000001
 12
1.0
 22
0.0
 32
0.0
 13
1.0
 23
0.0
 33
0.0
 40
0.0
 40
0.0
 40
0.0
 40
0.0
 40
1.0
 40
1.0
 40
1.0
 40
2.0
 40
2.0
 40
2.0
 40
3.0
 40
3.0
 40
3.0
 40
4.0
 40
4.0
 40
4.0
 40
4.0
 10
5.73384266800954
 20
-7.903092946831343
 30
0.0
 10
5.73384266800954
 20
-7.837862464567857
 30
0.0
 10
5.680962914052543
 20
-7.784982710610873
 30
0.0
 10
5.615732431789056
 20
-7.784982710610873
 30
0.0
 10
5.550501949525583
 20
-7.784982710610873
 30
0.0
 10
5.497622195568586
 20
-7.837862464567857
 30
0.0
 10
5.497622195568586
 20
-7.903092946831343
 30
0.0
 10
5.497622195568586
 20
-7.96832342909483
 30
0.0
 10
5.550501949525583
 20
-8.021203183051814
 30
0.0
 10
5.615732431789056
 20
-8.021203183051814
 30
0.0
 10
5.680962914052543
 20
-8.021203183051814
 30
0.0
 10
5.73384266800954
 20
-7.96832342909483
 30
0.0
 10
5.73384266800954
 20
-7.903092946831343
 30
0.0
  0
SPLINE
  5
7D
330
1F
100
AcDbEntity
  8
Layer 1
 62
    93
420
  6929733
370
    35
100
AcDbSpline
210
0.0
220
0.0
230
1.0
 70
    11
 71
     3
 72
    17
 73
    13
 74
     0
 42
0.0000000001
 43
0.0000000001
 12
1.0
 22
0.0
 32
0.0
 13
1.0
 23
0.0
 33
0.0
 40
0.0
 40
0.0
 40
0.0
 40
0.0
 40
1.0
 40
1.0
 40
1.0
 40
2.0
 40
2.0
 40
2.0
 40
3.0
 40
3.0
 40
3.0
 40
4.0
 40
4.0
 40
4.0
 40
4.0
 10
8.096047159278163
 20
-9.576321293288034
 30
0.0
 10
8.096047159278163
 20
-9.51109081102456
 30
0.0
 10
8.043167405321178
 20
-9.458211057067563
 30
0.0
 10
7.977936923057692
 20
-9.458211057067563
 30
0.0
 10
7.912706440794206
 20
-9.458211057067563
 30
0.0
 10
7.859826686837222
 20
-9.51109081102456
 30
0.0
 10
7.859826686837222
 20
-9.576321293288034
 30
0.0
 10
7.859826686837222
 20
-9.641551775551507
 30
0.0
 10
7.912706440794206
 20
-9.694431529508506
 30
0.0
 10
7.977936923057692
 20
-9.694431529508506
 30
0.0
 10
8.043167405321178
 20
-9.694431529508506
 30
0.0
 10
8.096047159278163
 20
-9.641551775551507
 30
0.0
 10
8.096047159278163
 20
-9.576321293288034
 30
0.0
  0
SPLINE
  5
7E
330
1F
100
AcDbEntity
  8
Layer 1
 62
    93
420
  6929733
370
    35
100
AcDbSpline
210
0.0
220
0.0
230
1.0
 70
    11
 71
     3
 72
    17
 73
    13
 74
     0
 42
0.0000000001
 43
0.0000000001
 12
1.0
 22
0.0
 32
0.0
 13
1.0
 23
0.0
 33
0.0
 40
0.0
 40
0.0
 40
0.0
 40
0.0
 40
1.0
 40
1.0
 40
1.0
 40
2.0
 40
2.0
 40
2.0
 40
3.0
 40
3.0
 40
3.0
 40
4.0
 40
4.0
 40
4.0
 40
4.0
 10
10.81258259233136
 20
-9.576321293349022
 30
0.0
 10
10.81258259233429
 20
-9.511090811085536
 30
0.0
 10
10.86546234629365
 20
-9.458211057130912
 30
0.0
 10
10.93069282855713
 20
-9.458211057133843
 30
0.0
 10
10.99592331082061
 20
-9.458211057136774
 30
0.0
 10
11.04880306477523
 20
-9.511090811096134
 30
0.0
 10
11.0488030647723
 20
-9.57632129335962
 30
0.0
 10
11.04880306476938
 20
-9.641551775623093
 30
0.0
 10
10.99592331081001
 20
-9.694431529577715
 30
0.0
 10
10.93069282854654
 20
-9.694431529574786
 30
0.0
 10
10.86546234628305
 20
-9.694431529571867
 30
0.0
 10
10.81258259232843
 20
-9.641551775612495
 30
0.0
 10
10.81258259233136
 20
-9.576321293349022
 30
0.0
  0
SPLINE
  5
7F
330
1F
100
AcDbEntity
  8
Layer 1
 62
    93
420
  6929733
370
    35
100
AcDbSpline
210
0.0
220
0.0
230
1.0
 70
    11
 71
     3
 72
    17
 73
    13
 74
     0
 42
0.0000000001
 43
0.0000000001
 12
1.0
 22
0.0
 32
0.0
 13
1.0
 23
0.0
 33
0.0
 40
0.0
 40
0.0
 40
0.0
 40
0.0
 40
1.0
 40
1.0
 40
1.0
 40
2.0
 40
2.0
 40
2.0
 40
3.0
 40
3.0
 40
3.0
 40
4.0
 40
4.0
 40
4.0
 40
4.0
 10
13.41537657420443
 20
-7.903092946831343
 30
0.0
 10
13.41537657420443
 20
-7.837862464567857
 30
0.0
 10
13.36249682024743
 20
-7.784982710610873
 30
0.0
 10
13.29726633798396
 20
-7.784982710610873
 30
0.0
 10
13.23203585572047
 20
-7.784982710610873
 30
0.0
 10
13.17915610176347
 20
-7.837862464567857
 30
0.0
 10
13.17915610176347
 20
-7.903092946831343
 30
0.0
 10
13.17915610176347
 20
-7.96832342909483
 30
0.0
 10
13.23203585572047
 20
-8.021203183051814
 30
0.0
 10
13.29726633798396
 20
-8.021203183051814
 30
0.0
 10
13.36249682024743
 20
-8.021203183051814
 30
0.0
 10
13.41537657420443
 20
-7.96832342909483
 30
0.0
 10
13.41537657420443
 20
-7.903092946831343
 30
0.0
  0
POLYLINE
  5
80
330
1F
100
AcDbEntity
  8
Layer 1
 62
   250
420
  2301728
370
    35
100
AcDb2dPolyline
 66
     1
 10
0.0
 20
0.0
 30
0.0
  0
VERTEX
  5
81
330
80
100
AcDbEntity
  8
Layer 1
 62
   250
420
  2301728
370
    35
100
AcDbVertex
100
AcDb2dVertex
 10
4.139354387919083
 20
-11.22986454433865
 30
0.0
  0
VERTEX
  5
82
330
80
100
AcDbEntity
  8
Layer 1
 62
   250
420
  2301728
370
    35
100
AcDbVertex
100
AcDb2dVertex
 10
4.139354387919083
 20
-11.2298764122857
 30
0.0
  0
VERTEX
  5
83
330
80
100
AcDbEntity
  8
Layer 1
 62
   250
420
  2301728
370
    35
100
AcDbVertex
100
AcDb2dVertex
 10
4.139356931050593
 20
-11.2298764122857
 30
0.0
  0
VERTEX
  5
84
330
80
100
AcDbEntity
  8
Layer 1
 62
   250
420
  2301728
370
    35
100
AcDbVertex
100
AcDb2dVertex
 10
4.139356931050593
 20
-11.22986454433865
 30
0.0
  0
VERTEX
  5
85
330
80
100
AcDbEntity
  8
Layer 1
 62
   250
420
  2301728
370
    35
100
AcDbVertex
100
AcDb2dVertex
 10
4.139354387919083
 20
-11.22986454433865
 30
0.0
  0
SEQEND
  5
86
330
80
100
AcDbEntity
  8
Layer 1
 62
   250
420
  2301728
370
    35
  0
POLYLINE
  5
87
330
1F
100
AcDbEntity
  8
Layer 1
 62
   250
420
  2301728
370
    35
100
AcDb2dPolyline
 66
     1
 10
0.0
 20
0.0
 30
0.0
  0
VERTEX
  5
88
330
87
100
AcDbEntity
  8
Layer 1
 62
   250
420
  2301728
370
    35
100
AcDbVertex
100
AcDb2dVertex
 10
14.61770216623944
 20
-11.07830153571235
 30
0.0
  0
VERTEX
  5
89
330
87
100
AcDbEntity
  8
Layer 1
 62
   250
420
  2301728
370
    35
100
AcDbVertex
100
AcDb2dVertex
 10
14.61770216623944
 20
-10.44245592753092
 30
0.0
  0
VERTEX
  5
8A
330
87
100
AcDbEntity
  8
Layer 1
 62
   250
420
  2301728
370
    35
100
AcDbVertex
100
AcDb2dVertex
 10
14.76927619510222
 20
-10.44245592753092
 30
0.0
  0
VERTEX
  5
8B
330
87
100
AcDbEntity
  8
Layer 1
 62
   250
420
  2301728
370
    35
100
AcDbVertex
100
AcDb2dVertex
 10
14.76927619510222
 20
-9.655054092407227
 30
0.0
  0
VERTEX
  5
8C
330
87
100
AcDbEntity
  8
Layer 1
 62
   250
420
  2301728
370
    35
100
AcDbVertex
100
AcDb2dVertex
 10
14.61770216623944
 20
-9.655054092407227
 30
0.0
  0
VERTEX
  5
8D
330
87
100
AcDbEntity
  8
Layer 1
 62
   250
420
  2301728
370
    35
100
AcDbVertex
100
AcDb2dVertex
 10
14.61770216623944
 20
-8.867652257283527
 30
0.0
  0
VERTEX
  5
8E
330
87
100
AcDbEntity
  8
Layer 1
 62
   250
420
  2301728
370
    35
100
AcDbVertex
100
AcDb2dVertex
 10
14.76927619510222
 20
-8.867652257283527
 30
0.0
  0
VERTEX
  5
8F
330
87
100
AcDbEntity
  8
Layer 1
 62
   250
420
  2301728
370
    35
100
AcDbVertex
100
AcDb2dVertex
 10
14.76927619510222
 20
-8.080263985527885
 30
0.0
  0
VERTEX
  5
90
330
87
100
AcDbEntity
  8
Layer 1
 62
   250
420
  2301728
370
    35
100
AcDbVertex
100
AcDb2dVertex
 10
14.61770216623944
 20
-8.080263985527885
 30
0.0
  0
VERTEX
  5
91
330
87
100
AcDbEntity
  8
Layer 1
 62
   250
420
  2301728
370
    35
100
AcDbVertex
100
AcDb2dVertex
 10
14.61770216623944
 20
-7.44444465637207
 30
0.0
  0
VERTEX
  5
92
330
87
100
AcDbEntity
  8
Layer 1
 62
   250
420
  2301728
370
    35
100
AcDbVertex
100
AcDb2dVertex
 10
13.58817895253497
 20
-7.44444465637207
 30
0.0
  0
VERTEX
  5
93
330
87
100
AcDbEntity
  8
Layer 1
 62
   250
420
  2301728
370
    35
100
AcDbVertex
100
AcDb2dVertex
 10
13.58817895253497
 20
-7.292869779798719
 30
0.0
  0
VERTEX
  5
94
330
87
100
AcDbEntity
  8
Layer 1
 62
   250
420
  2301728
370
    35
100
AcDbVertex
100
AcDb2dVertex
 10
12.40707662370468
 20
-7.292869779798719
 30
0.0
  0
VERTEX
  5
95
330
87
100
AcDbEntity
  8
Layer 1
 62
   250
420
  2301728
370
    35
100
AcDbVertex
100
AcDb2dVertex
 10
12.40707662370468
 20
-7.44444465637207
 30
0.0
  0
VERTEX
  5
96
330
87
100
AcDbEntity
  8
Layer 1
 62
   250
420
  2301728
370
    35
100
AcDbVertex
100
AcDb2dVertex
 10
11.22597429487438
 20
-7.44444465637207
 30
0.0
  0
VERTEX
  5
97
330
87
100
AcDbEntity
  8
Layer 1
 62
   250
420
  2301728
370
    35
100
AcDbVertex
100
AcDb2dVertex
 10
11.22597429487438
 20
-7.292869779798719
 30
0.0
  0
VERTEX
  5
98
330
87
100
AcDbEntity
  8
Layer 1
 62
   250
420
  2301728
370
    35
100
AcDbVertex
100
AcDb2dVertex
 10
10.04487196604408
 20
-7.292869779798719
 30
0.0
  0
VERTEX
  5
99
330
87
100
AcDbEntity
  8
Layer 1
 62
   250
420
  2301728
370
    35
100
AcDbVertex
100
AcDb2dVertex
 10
10.04487196604408
 20
-7.44444465637207
 30
0.0
  0
VERTEX
  5
9A
330
87
100
AcDbEntity
  8
Layer 1
 62
   250
420
  2301728
370
    35
100
AcDbVertex
100
AcDb2dVertex
 10
8.863769637213787
 20
-7.44444465637207
 30
0.0
  0
VERTEX
  5
9B
330
87
100
AcDbEntity
  8
Layer 1
 62
   250
420
  2301728
370
    35
100
AcDbVertex
100
AcDb2dVertex
 10
8.863769637213787
 20
-7.292869779798719
 30
0.0
  0
VERTEX
  5
9C
330
87
100
AcDbEntity
  8
Layer 1
 62
   250
420
  2301728
370
    35
100
AcDbVertex
100
AcDb2dVertex
 10
7.682667308383492
 20
-7.292869779798719
 30
0.0
  0
VERTEX
  5
9D
330
87
100
AcDbEntity
  8
Layer 1
 62
   250
420
  2301728
370
    35
100
AcDbVertex
100
AcDb2dVertex
 10
7.682667308383492
 20
-7.44444465637207
 30
0.0
  0
VERTEX
  5
9E
330
87
100
AcDbEntity
  8
Layer 1
 62
   250
420
  2301728
370
    35
100
AcDbVertex
100
AcDb2dVertex
 10
6.501564979553197
 20
-7.44444465637207
 30
0.0
  0
VERTEX
  5
9F
330
87
100
AcDbEntity
  8
Layer 1
 62
   250
420
  2301728
370
    35
100
AcDbVertex
100
AcDb2dVertex
 10
6.501564979553197
 20
-7.292869779798719
 30
0.0
  0
VERTEX
  5
A0
330
87
100
AcDbEntity
  8
Layer 1
 62
   250
420
  2301728
370
    35
100
AcDbVertex
100
AcDb2dVertex
 10
5.320456716749377
 20
-7.292869779798719
 30
0.0
  0
VERTEX
  5
A1
330
87
100
AcDbEntity
  8
Layer 1
 62
   250
420
  2301728
370
    35
100
AcDbVertex
100
AcDb2dVertex
 10
5.320456716749377
 20
-7.44444465637207
 30
0.0
  0
VERTEX
  5
A2
330
87
100
AcDbEntity
  8
Layer 1
 62
   250
420
  2301728
370
    35
100
AcDbVertex
100
AcDb2dVertex
 10
4.29092841678193
 20
-7.44444465637207
 30
0.0
  0
VERTEX
  5
A3
330
87
100
AcDbEntity
  8
Layer 1
 62
   250
420
  2301728
370
    35
100
AcDbVertex
100
AcDb2dVertex
 10
4.29092841678193
 20
-8.080270767211914
 30
0.0
  0
VERTEX
  5
A4
330
87
100
AcDbEntity
  8
Layer 1
 62
   250
420
  2301728
370
    35
100
AcDbVertex
100
AcDb2dVertex
 10
4.139354387919083
 20
-8.080270767211914
 30
0.0
  0
VERTEX
  5
A5
330
87
100
AcDbEntity
  8
Layer 1
 62
   250
420
  2301728
370
    35
100
AcDbVertex
100
AcDb2dVertex
 10
4.139354387919083
 20
-8.867659886678059
 30
0.0
  0
VERTEX
  5
A6
330
87
100
AcDbEntity
  8
Layer 1
 62
   250
420
  2301728
370
    35
100
AcDbVertex
100
AcDb2dVertex
 10
4.29092841678193
 20
-8.867659886678059
 30
0.0
  0
VERTEX
  5
A7
330
87
100
AcDbEntity
  8
Layer 1
 62
   250
420
  2301728
370
    35
100
AcDbVertex
100
AcDb2dVertex
 10
4.29092841678193
 20
-9.655060874091253
 30
0.0
  0
VERTEX
  5
A8
330
87
100
AcDbEntity
  8
Layer 1
 62
   250
420
  2301728
370
    35
100
AcDbVertex
100
AcDb2dVertex
 10
4.139354387919083
 20
-9.655060874091253
 30
0.0
  0
VERTEX
  5
A9
330
87
100
AcDbEntity
  8
Layer 1
 62
   250
420
  2301728
370
    35
100
AcDbVertex
100
AcDb2dVertex
 10
4.139354387919083
 20
-10.44246270921495
 30
0.0
  0
VERTEX
  5
AA
330
87
100
AcDbEntity
  8
Layer 1
 62
   250
420
  2301728
370
    35
100
AcDbVertex
100
AcDb2dVertex
 10
4.29092841678193
 20
-10.44246270921495
 30
0.0
  0
VERTEX
  5
AB
330
87
100
AcDbEntity
  8
Layer 1
 62
   250
420
  2301728
370
    35
100
AcDbVertex
100
AcDb2dVertex
 10
4.29092841678193
 20
-11.07830153571235
 30
0.0
  0
VERTEX
  5
AC
330
87
100
AcDbEntity
  8
Layer 1
 62
   250
420
  2301728
370
    35
100
AcDbVertex
100
AcDb2dVertex
 10
5.320459259880888
 20
-11.07830153571235
 30
0.0
  0
VERTEX
  5
AD
330
87
100
AcDbEntity
  8
Layer 1
 62
   250
420
  2301728
370
    35
100
AcDbVertex
100
AcDb2dVertex
 10
5.320459259880888
 20
-11.2298764122857
 30
0.0
  0
VERTEX
  5
AE
330
87
100
AcDbEntity
  8
Layer 1
 62
   250
420
  2301728
370
    35
100
AcDbVertex
100
AcDb2dVertex
 10
6.501568370395211
 20
-11.2298764122857
 30
0.0
  0
VERTEX
  5
AF
330
87
100
AcDbEntity
  8
Layer 1
 62
   250
420
  2301728
370
    35
100
AcDbVertex
100
AcDb2dVertex
 10
6.501568370395211
 20
-11.07830153571235
 30
0.0
  0
VERTEX
  5
B0
330
87
100
AcDbEntity
  8
Layer 1
 62
   250
420
  2301728
370
    35
100
AcDbVertex
100
AcDb2dVertex
 10
7.682670699225506
 20
-11.07830153571235
 30
0.0
  0
VERTEX
  5
B1
330
87
100
AcDbEntity
  8
Layer 1
 62
   250
420
  2301728
370
    35
100
AcDbVertex
100
AcDb2dVertex
 10
7.682670699225506
 20
-11.2298764122857
 30
0.0
  0
VERTEX
  5
B2
330
87
100
AcDbEntity
  8
Layer 1
 62
   250
420
  2301728
370
    35
100
AcDbVertex
100
AcDb2dVertex
 10
8.863773028055801
 20
-11.2298764122857
 30
0.0
  0
VERTEX
  5
B3
330
87
100
AcDbEntity
  8
Layer 1
 62
   250
420
  2301728
370
    35
100
AcDbVertex
100
AcDb2dVertex
 10
8.863773028055801
 20
-11.07830153571235
 30
0.0
  0
VERTEX
  5
B4
330
87
100
AcDbEntity
  8
Layer 1
 62
   250
420
  2301728
370
    35
100
AcDbVertex
100
AcDb2dVertex
 10
10.0448753568861
 20
-11.07830153571235
 30
0.0
  0
VERTEX
  5
B5
330
87
100
AcDbEntity
  8
Layer 1
 62
   250
420
  2301728
370
    35
100
AcDbVertex
100
AcDb2dVertex
 10
10.0448753568861
 20
-11.2298764122857
 30
0.0
  0
VERTEX
  5
B6
330
87
100
AcDbEntity
  8
Layer 1
 62
   250
420
  2301728
370
    35
100
AcDbVertex
100
AcDb2dVertex
 10
11.22597768571639
 20
-11.2298764122857
 30
0.0
  0
VERTEX
  5
B7
330
87
100
AcDbEntity
  8
Layer 1
 62
   250
420
  2301728
370
    35
100
AcDbVertex
100
AcDb2dVertex
 10
11.22597768571639
 20
-11.07830153571235
 30
0.0
  0
VERTEX
  5
B8
330
87
100
AcDbEntity
  8
Layer 1
 62
   250
420
  2301728
370
    35
100
AcDbVertex
100
AcDb2dVertex
 10
12.4070800145467
 20
-11.07830153571235
 30
0.0
  0
VERTEX
  5
B9
330
87
100
AcDbEntity
  8
Layer 1
 62
   250
420
  2301728
370
    35
100
AcDbVertex
100
AcDb2dVertex
 10
12.4070800145467
 20
-11.2298764122857
 30
0.0
  0
VERTEX
  5
BA
330
87
100
AcDbEntity
  8
Layer 1
 62
   250
420
  2301728
370
    35
100
AcDbVertex
100
AcDb2dVertex
 10
13.58818234337698
 20
-11.2298764122857
 30
0.0
  0
VERTEX
  5
BB
330
87
100
AcDbEntity
  8
Layer 1
 62
   250
420
  2301728
370
    35
100
AcDbVertex
100
AcDb2dVertex
 10
13.58818234337698
 20
-11.07830153571235
 30
0.0
  0
VERTEX
  5
BC
330
87
100
AcDbEntity
  8
Layer 1
 62
   250
420
  2301728
370
    35
100
AcDbVertex
100
AcDb2dVertex
 10
14.61770216623944
 20
-11.07830153571235
 30
0.0
  0
SEQEND
  5
BD
330
87
100
AcDbEntity
  8
Layer 1
 62
   250
420
  2301728
370
    35
  0
POLYLINE
  5
BE
330
1F
100
AcDbEntity
  8
Layer 1
 62
   250
420
  2301728
370
    35
100
AcDb2dPolyline
 66
     1
 10
0.0
 20
0.0
 30
0.0
  0
VERTEX
  5
BF
330
BE
100
AcDbEntity
  8
Layer 1
 62
   250
420
  2301728
370
    35
100
AcDbVertex
100
AcDb2dVertex
 10
9.229583634270574
 20
-12.24495357937283
 30
0.0
  0
VERTEX
  5
C0
330
BE
100
AcDbEntity
  8
Layer 1
 62
   250
420
  2301728
370
    35
100
AcDbVertex
100
AcDb2dVertex
 10
5.595713191562241
 20
-12.24495357937283
 30
0.0
  0
VERTEX
  5
C1
330
BE
100
AcDbEntity
  8
Layer 1
 62
   250
420
  2301728
370
    35
100
AcDbVertex
100
AcDb2dVertex
 10
5.444138314988877
 20
-12.24495357937283
 30
0.0
  0
VERTEX
  5
C2
330
BE
100
AcDbEntity
  8
Layer 1
 62
   250
420
  2301728
370
    35
100
AcDbVertex
100
AcDb2dVertex
 10
5.444138314988877
 20
-12.76988813612196
 30
0.0
  0
VERTEX
  5
C3
330
BE
100
AcDbEntity
  8
Layer 1
 62
   250
420
  2301728
370
    35
100
AcDbVertex
100
AcDb2dVertex
 10
5.595713191562241
 20
-12.76988813612196
 30
0.0
  0
VERTEX
  5
C4
330
BE
100
AcDbEntity
  8
Layer 1
 62
   250
420
  2301728
370
    35
100
AcDbVertex
100
AcDb2dVertex
 10
5.595713191562241
 20
-13.03235541449653
 30
0.0
  0
VERTEX
  5
C5
330
BE
100
AcDbEntity
  8
Layer 1
 62
   250
420
  2301728
370
    35
100
AcDbVertex
100
AcDb2dVertex
 10
5.595713191562241
 20
-13.18393029106988
 30
0.0
  0
VERTEX
  5
C6
330
BE
100
AcDbEntity
  8
Layer 1
 62
   250
420
  2301728
370
    35
100
AcDbVertex
100
AcDb2dVertex
 10
6.231552018059624
 20
-13.18393029106988
 30
0.0
  0
VERTEX
  5
C7
330
BE
100
AcDbEntity
  8
Layer 1
 62
   250
420
  2301728
370
    35
100
AcDbVertex
100
AcDb2dVertex
 10
6.231552018059624
 20
-13.03235541449653
 30
0.0
  0
VERTEX
  5
C8
330
BE
100
AcDbEntity
  8
Layer 1
 62
   250
420
  2301728
370
    35
100
AcDbVertex
100
AcDb2dVertex
 10
7.018941137525783
 20
-13.03235541449653
 30
0.0
  0
VERTEX
  5
C9
330
BE
100
AcDbEntity
  8
Layer 1
 62
   250
420
  2301728
370
    35
100
AcDbVertex
100
AcDb2dVertex
 10
7.018941137525783
 20
-13.18393029106988
 30
0.0
  0
VERTEX
  5
CA
330
BE
100
AcDbEntity
  8
Layer 1
 62
   250
420
  2301728
370
    35
100
AcDbVertex
100
AcDb2dVertex
 10
7.806342124938977
 20
-13.18393029106988
 30
0.0
  0
VERTEX
  5
CB
330
BE
100
AcDbEntity
  8
Layer 1
 62
   250
420
  2301728
370
    35
100
AcDbVertex
100
AcDb2dVertex
 10
7.806342124938977
 20
-13.03235541449653
 30
0.0
  0
VERTEX
  5
CC
330
BE
100
AcDbEntity
  8
Layer 1
 62
   250
420
  2301728
370
    35
100
AcDbVertex
100
AcDb2dVertex
 10
8.593743960062662
 20
-13.03235541449653
 30
0.0
  0
VERTEX
  5
CD
330
BE
100
AcDbEntity
  8
Layer 1
 62
   250
420
  2301728
370
    35
100
AcDbVertex
100
AcDb2dVertex
 10
8.593743960062662
 20
-13.18393029106988
 30
0.0
  0
VERTEX
  5
CE
330
BE
100
AcDbEntity
  8
Layer 1
 62
   250
420
  2301728
370
    35
100
AcDbVertex
100
AcDb2dVertex
 10
9.229583634270574
 20
-13.18393029106988
 30
0.0
  0
VERTEX
  5
CF
330
BE
100
AcDbEntity
  8
Layer 1
 62
   250
420
  2301728
370
    35
100
AcDbVertex
100
AcDb2dVertex
 10
9.229583634270574
 20
-13.03235541449653
 30
0.0
  0
VERTEX
  5
D0
330
BE
100
AcDbEntity
  8
Layer 1
 62
   250
420
  2301728
370
    35
100
AcDbVertex
100
AcDb2dVertex
 10
9.229583634270574
 20
-12.76988813612196
 30
0.0
  0
VERTEX
  5
D1
330
BE
100
AcDbEntity
  8
Layer 1
 62
   250
420
  2301728
370
    35
100
AcDbVertex
100
AcDb2dVertex
 10
9.381158510843912
 20
-12.76988813612196
 30
0.0
  0
VERTEX
  5
D2
330
BE
100
AcDbEntity
  8
Layer 1
 62
   250
420
  2301728
370
    35
100
AcDbVertex
100
AcDb2dVertex
 10
9.381158510843912
 20
-12.50742085774739
 30
0.0
  0
VERTEX
  5
D3
330
BE
100
AcDbEntity
  8
Layer 1
 62
   250
420
  2301728
370
    35
100
AcDbVertex
100
AcDb2dVertex
 10
9.229583634270574
 20
-12.50742085774739
 30
0.0
  0
VERTEX
  5
D4
330
BE
100
AcDbEntity
  8
Layer 1
 62
   250
420
  2301728
370
    35
100
AcDbVertex
100
AcDb2dVertex
 10
9.229583634270574
 20
-12.24495357937283
 30
0.0
  0
SEQEND
  5
D5
330
BE
100
AcDbEntity
  8
Layer 1
 62
   250
420
  2301728
370
    35
  0
POLYLINE
  5
D6
330
1F
100
AcDbEntity
  8
Layer 1
 62
   250
420
  2301728
370
    35
100
AcDb2dPolyline
 66
     1
 10
0.0
 20
0.0
 30
0.0
  0
VERTEX
  5
D7
330
D6
100
AcDbEntity
  8
Layer 1
 62
   250
420
  2301728
370
    35
100
AcDbVertex
100
AcDb2dVertex
 10
13.31291696760391
 20
-12.24495357937283
 30
0.0
  0
VERTEX
  5
D8
330
D6
100
AcDbEntity
  8
Layer 1
 62
   250
420
  2301728
370
    35
100
AcDbVertex
100
AcDb2dVertex
 10
9.679046524895574
 20
-12.24495357937283
 30
0.0
  0
VERTEX
  5
D9
330
D6
100
AcDbEntity
  8
Layer 1
 62
   250
420
  2301728
370
    35
100
AcDbVertex
100
AcDb2dVertex
 10
9.679046524895574
 20
-12.50742085774739
 30
0.0
  0
VERTEX
  5
DA
330
D6
100
AcDbEntity
  8
Layer 1
 62
   250
420
  2301728
370
    35
100
AcDbVertex
100
AcDb2dVertex
 10
9.52747164832221
 20
-12.50742085774739
 30
0.0
  0
VERTEX
  5
DB
330
D6
100
AcDbEntity
  8
Layer 1
 62
   250
420
  2301728
370
    35
100
AcDbVertex
100
AcDb2dVertex
 10
9.52747164832221
 20
-12.76988813612196
 30
0.0
  0
VERTEX
  5
DC
330
D6
100
AcDbEntity
  8
Layer 1
 62
   250
420
  2301728
370
    35
100
AcDbVertex
100
AcDb2dVertex
 10
9.679046524895574
 20
-12.76988813612196
 30
0.0
  0
VERTEX
  5
DD
330
D6
100
AcDbEntity
  8
Layer 1
 62
   250
420
  2301728
370
    35
100
AcDbVertex
100
AcDb2dVertex
 10
9.679046524895574
 20
-13.03235541449653
 30
0.0
  0
VERTEX
  5
DE
330
D6
100
AcDbEntity
  8
Layer 1
 62
   250
420
  2301728
370
    35
100
AcDbVertex
100
AcDb2dVertex
 10
9.679046524895574
 20
-13.18393029106988
 30
0.0
  0
VERTEX
  5
DF
330
D6
100
AcDbEntity
  8
Layer 1
 62
   250
420
  2301728
370
    35
100
AcDbVertex
100
AcDb2dVertex
 10
10.31488535139296
 20
-13.18393029106988
 30
0.0
  0
VERTEX
  5
E0
330
D6
100
AcDbEntity
  8
Layer 1
 62
   250
420
  2301728
370
    35
100
AcDbVertex
100
AcDb2dVertex
 10
10.31488535139296
 20
-13.03235541449653
 30
0.0
  0
VERTEX
  5
E1
330
D6
100
AcDbEntity
  8
Layer 1
 62
   250
420
  2301728
370
    35
100
AcDbVertex
100
AcDb2dVertex
 10
11.10228718651666
 20
-13.03235541449653
 30
0.0
  0
VERTEX
  5
E2
330
D6
100
AcDbEntity
  8
Layer 1
 62
   250
420
  2301728
370
    35
100
AcDbVertex
100
AcDb2dVertex
 10
11.10228718651666
 20
-13.18393029106988
 30
0.0
  0
VERTEX
  5
E3
330
D6
100
AcDbEntity
  8
Layer 1
 62
   250
420
  2301728
370
    35
100
AcDbVertex
100
AcDb2dVertex
 10
11.88968902164037
 20
-13.18393029106988
 30
0.0
  0
VERTEX
  5
E4
330
D6
100
AcDbEntity
  8
Layer 1
 62
   250
420
  2301728
370
    35
100
AcDbVertex
100
AcDb2dVertex
 10
11.88968902164037
 20
-13.03235541449653
 30
0.0
  0
VERTEX
  5
E5
330
D6
100
AcDbEntity
  8
Layer 1
 62
   250
420
  2301728
370
    35
100
AcDbVertex
100
AcDb2dVertex
 10
12.677077293396
 20
-13.03235541449653
 30
0.0
  0
VERTEX
  5
E6
330
D6
100
AcDbEntity
  8
Layer 1
 62
   250
420
  2301728
370
    35
100
AcDbVertex
100
AcDb2dVertex
 10
12.677077293396
 20
-13.18393029106988
 30
0.0
  0
VERTEX
  5
E7
330
D6
100
AcDbEntity
  8
Layer 1
 62
   250
420
  2301728
370
    35
100
AcDbVertex
100
AcDb2dVertex
 10
13.31291696760391
 20
-13.18393029106988
 30
0.0
  0
VERTEX
  5
E8
330
D6
100
AcDbEntity
  8
Layer 1
 62
   250
420
  2301728
370
    35
100
AcDbVertex
100
AcDb2dVertex
 10
13.31291696760391
 20
-13.03235541449653
 30
0.0
  0
VERTEX
  5
E9
330
D6
100
AcDbEntity
  8
Layer 1
 62
   250
420
  2301728
370
    35
100
AcDbVertex
100
AcDb2dVertex
 10
13.31291696760391
 20
-12.76988813612196
 30
0.0
  0
VERTEX
  5
EA
330
D6
100
AcDbEntity
  8
Layer 1
 62
   250
420
  2301728
370
    35
100
AcDbVertex
100
AcDb2dVertex
 10
13.46449184417725
 20
-12.76988813612196
 30
0.0
  0
VERTEX
  5
EB
330
D6
100
AcDbEntity
  8
Layer 1
 62
   250
420
  2301728
370
    35
100
AcDbVertex
100
AcDb2dVertex
 10
13.46449184417725
 20
-12.24495357937283
 30
0.0
  0
VERTEX
  5
EC
330
D6
100
AcDbEntity
  8
Layer 1
 62
   250
420
  2301728
370
    35
100
AcDbVertex
100
AcDb2dVertex
 10
13.31291696760391
 20
-12.24495357937283
 30
0.0
  0
SEQEND
  5
ED
330
D6
100
AcDbEntity
  8
Layer 1
 62
   250
420
  2301728
370
    35
  0
POLYLINE
  5
EE
330
1F
100
AcDbEntity
  8
Layer 1
 62
   250
420
  2301728
370
    35
100
AcDb2dPolyline
 66
     1
 10
0.0
 20
0.0
 30
0.0
  0
VERTEX
  5
EF
330
EE
100
AcDbEntity
  8
Layer 1
 62
   250
420
  2301728
370
    35
100
AcDbVertex
100
AcDb2dVertex
 10
7.492702696058459
 20
-23.10249667697485
 30
0.0
  0
VERTEX
  5
F0
330
EE
100
AcDbEntity
  8
Layer 1
 62
   250
420
  2301728
370
    35
100
AcDbVertex
100
AcDb2dVertex
 10
6.955827289157418
 20
-23.10249667697485
 30
0.0
  0
VERTEX
  5
F1
330
EE
100
AcDbEntity
  8
Layer 1
 62
   250
420
  2301728
370
    35
100
AcDbVertex
100
AcDb2dVertex
 10
6.955827289157418
 20
-22.95092180040152
 30
0.0
  0
VERTEX
  5
F2
330
EE
100
AcDbEntity
  8
Layer 1
 62
   250
420
  2301728
370
    35
100
AcDbVertex
100
AcDb2dVertex
 10
6.267374462551516
 20
-22.95092180040152
 30
0.0
  0
VERTEX
  5
F3
330
EE
100
AcDbEntity
  8
Layer 1
 62
   250
420
  2301728
370
    35
100
AcDbVertex
100
AcDb2dVertex
 10
6.267374462551516
 20
-23.10249667697485
 30
0.0
  0
VERTEX
  5
F4
330
EE
100
AcDbEntity
  8
Layer 1
 62
   250
420
  2301728
370
    35
100
AcDbVertex
100
AcDb2dVertex
 10
5.578923331366619
 20
-23.10249667697485
 30
0.0
  0
VERTEX
  5
F5
330
EE
100
AcDbEntity
  8
Layer 1
 62
   250
420
  2301728
370
    35
100
AcDbVertex
100
AcDb2dVertex
 10
5.578923331366619
 20
-22.95092180040152
 30
0.0
  0
VERTEX
  5
F6
330
EE
100
AcDbEntity
  8
Layer 1
 62
   250
420
  2301728
370
    35
100
AcDbVertex
100
AcDb2dVertex
 10
4.890472200181724
 20
-22.95092180040152
 30
0.0
  0
VERTEX
  5
F7
330
EE
100
AcDbEntity
  8
Layer 1
 62
   250
420
  2301728
370
    35
100
AcDbVertex
100
AcDb2dVertex
 10
4.890472200181724
 20
-23.10249667697485
 30
0.0
  0
VERTEX
  5
F8
330
EE
100
AcDbEntity
  8
Layer 1
 62
   250
420
  2301728
370
    35
100
AcDbVertex
100
AcDb2dVertex
 10
4.353596793280682
 20
-23.10249667697485
 30
0.0
  0
VERTEX
  5
F9
330
EE
100
AcDbEntity
  8
Layer 1
 62
   250
420
  2301728
370
    35
100
AcDbVertex
100
AcDb2dVertex
 10
4.353596793280682
 20
-23.67769368489583
 30
0.0
  0
VERTEX
  5
FA
330
EE
100
AcDbEntity
  8
Layer 1
 62
   250
420
  2301728
370
    35
100
AcDbVertex
100
AcDb2dVertex
 10
4.202021068996828
 20
-23.67769368489583
 30
0.0
  0
VERTEX
  5
FB
330
EE
100
AcDbEntity
  8
Layer 1
 62
   250
420
  2301728
370
    35
100
AcDbVertex
100
AcDb2dVertex
 10
4.202021068996828
 20
-24.40446472167971
 30
0.0
  0
VERTEX
  5
FC
330
EE
100
AcDbEntity
  8
Layer 1
 62
   250
420
  2301728
370
    35
100
AcDbVertex
100
AcDb2dVertex
 10
4.353596793280682
 20
-24.40446472167971
 30
0.0
  0
VERTEX
  5
FD
330
EE
100
AcDbEntity
  8
Layer 1
 62
   250
420
  2301728
370
    35
100
AcDbVertex
100
AcDb2dVertex
 10
4.353596793280682
 20
-25.13123660617402
 30
0.0
  0
VERTEX
  5
FE
330
EE
100
AcDbEntity
  8
Layer 1
 62
   250
420
  2301728
370
    35
100
AcDbVertex
100
AcDb2dVertex
 10
4.202021068996828
 20
-25.13123660617402
 30
0.0
  0
VERTEX
  5
FF
330
EE
100
AcDbEntity
  8
Layer 1
 62
   250
420
  2301728
370
    35
100
AcDbVertex
100
AcDb2dVertex
 10
4.202021068996828
 20
-25.85800764295792
 30
0.0
  0
VERTEX
  5
100
330
EE
100
AcDbEntity
  8
Layer 1
 62
   250
420
  2301728
370
    35
100
AcDbVertex
100
AcDb2dVertex
 10
4.353596793280682
 20
-25.85800764295792
 30
0.0
  0
VERTEX
  5
101
330
EE
100
AcDbEntity
  8
Layer 1
 62
   250
420
  2301728
370
    35
100
AcDbVertex
100
AcDb2dVertex
 10
4.353596793280682
 20
-26.43320465087888
 30
0.0
  0
VERTEX
  5
102
330
EE
100
AcDbEntity
  8
Layer 1
 62
   250
420
  2301728
370
    35
100
AcDbVertex
100
AcDb2dVertex
 10
4.890472200181724
 20
-26.43320465087888
 30
0.0
  0
VERTEX
  5
103
330
EE
100
AcDbEntity
  8
Layer 1
 62
   250
420
  2301728
370
    35
100
AcDbVertex
100
AcDb2dVertex
 10
4.890472200181724
 20
-26.5847786797418
 30
0.0
  0
VERTEX
  5
104
330
EE
100
AcDbEntity
  8
Layer 1
 62
   250
420
  2301728
370
    35
100
AcDbVertex
100
AcDb2dVertex
 10
5.578923331366619
 20
-26.5847786797418
 30
0.0
  0
VERTEX
  5
105
330
EE
100
AcDbEntity
  8
Layer 1
 62
   250
420
  2301728
370
    35
100
AcDbVertex
100
AcDb2dVertex
 10
5.578923331366619
 20
-26.43320465087888
 30
0.0
  0
VERTEX
  5
106
330
EE
100
AcDbEntity
  8
Layer 1
 62
   250
420
  2301728
370
    35
100
AcDbVertex
100
AcDb2dVertex
 10
6.267374462551516
 20
-26.43320465087888
 30
0.0
  0
VERTEX
  5
107
330
EE
100
AcDbEntity
  8
Layer 1
 62
   250
420
  2301728
370
    35
100
AcDbVertex
100
AcDb2dVertex
 10
6.267374462551516
 20
-26.5847786797418
 30
0.0
  0
VERTEX
  5
108
330
EE
100
AcDbEntity
  8
Layer 1
 62
   250
420
  2301728
370
    35
100
AcDbVertex
100
AcDb2dVertex
 10
6.955827289157418
 20
-26.5847786797418
 30
0.0
  0
VERTEX
  5
109
330
EE
100
AcDbEntity
  8
Layer 1
 62
   250
420
  2301728
370
    35
100
AcDbVertex
100
AcDb2dVertex
 10
6.955827289157418
 20
-26.43320465087888
 30
0.0
  0
VERTEX
  5
10A
330
EE
100
AcDbEntity
  8
Layer 1
 62
   250
420
  2301728
370
    35
100
AcDbVertex
100
AcDb2dVertex
 10
7.492702696058459
 20
-26.43320465087888
 30
0.0
  0
VERTEX
  5
10B
330
EE
100
AcDbEntity
  8
Layer 1
 62
   250
420
  2301728
370
    35
100
AcDbVertex
100
AcDb2dVertex
 10
7.492702696058459
 20
-25.85800764295792
 30
0.0
  0
VERTEX
  5
10C
330
EE
100
AcDbEntity
  8
Layer 1
 62
   250
420
  2301728
370
    35
100
AcDbVertex
100
AcDb2dVertex
 10
7.644276724921307
 20
-25.85800764295792
 30
0.0
  0
VERTEX
  5
10D
330
EE
100
AcDbEntity
  8
Layer 1
 62
   250
420
  2301728
370
    35
100
AcDbVertex
100
AcDb2dVertex
 10
7.644276724921307
 20
-25.13123575846362
 30
0.0
  0
VERTEX
  5
10E
330
EE
100
AcDbEntity
  8
Layer 1
 62
   250
420
  2301728
370
    35
100
AcDbVertex
100
AcDb2dVertex
 10
7.492702696058459
 20
-25.13123575846362
 30
0.0
  0
VERTEX
  5
10F
330
EE
100
AcDbEntity
  8
Layer 1
 62
   250
420
  2301728
370
    35
100
AcDbVertex
100
AcDb2dVertex
 10
7.492702696058459
 20
-24.40446472167971
 30
0.0
  0
VERTEX
  5
110
330
EE
100
AcDbEntity
  8
Layer 1
 62
   250
420
  2301728
370
    35
100
AcDbVertex
100
AcDb2dVertex
 10
7.644276724921307
 20
-24.40446472167971
 30
0.0
  0
VERTEX
  5
111
330
EE
100
AcDbEntity
  8
Layer 1
 62
   250
420
  2301728
370
    35
100
AcDbVertex
100
AcDb2dVertex
 10
7.644276724921307
 20
-23.67769368489583
 30
0.0
  0
VERTEX
  5
112
330
EE
100
AcDbEntity
  8
Layer 1
 62
   250
420
  2301728
370
    35
100
AcDbVertex
100
AcDb2dVertex
 10
7.492702696058459
 20
-23.67769368489583
 30
0.0
  0
VERTEX
  5
113
330
EE
100
AcDbEntity
  8
Layer 1
 62
   250
420
  2301728
370
    35
100
AcDbVertex
100
AcDb2dVertex
 10
7.492702696058459
 20
-23.10249667697485
 30
0.0
  0
SEQEND
  5
114
330
EE
100
AcDbEntity
  8
Layer 1
 62
   250
420
  2301728
370
    35
  0
SPLINE
  5
115
330
1F
100
AcDbEntity
  8
Layer 1
 62
   175
420
  3691172
370
    25
100
AcDbSpline
210
0.0
220
0.0
230
1.0
 70
    11
 71
     3
 72
    17
 73
    13
 74
     0
 42
0.0000000001
 43
0.0000000001
 12
1.0
 22
0.0
 32
0.0
 13
1.0
 23
0.0
 33
0.0
 40
0.0
 40
0.0
 40
0.0
 40
0.0
 40
1.0
 40
1.0
 40
1.0
 40
2.0
 40
2.0
 40
2.0
 40
3.0
 40
3.0
 40
3.0
 40
4.0
 40
4.0
 40
4.0
 40
4.0
 10
12.48685072846067
 20
-25.26033968147847
 30
0.0
 10
12.48685072846067
 20
-25.51836877690084
 30
0.0
 10
12.27767681761525
 20
-25.72754268774626
 30
0.0
 10
12.01964772219288
 20
-25.72754268774626
 30
0.0
 10
11.76161862677054
 20
-25.72754268774626
 30
0.0
 10
11.55244471592512
 20
-25.51836877690084
 30
0.0
 10
11.55244471592512
 20
-25.26033968147847
 30
0.0
 10
11.55244471592512
 20
-25.0023105860561
 30
0.0
 10
11.76161862677054
 20
-24.79313667521069
 30
0.0
 10
12.01964772219288
 20
-24.79313667521069
 30
0.0
 10
12.27767681761525
 20
-24.79313667521069
 30
0.0
 10
12.48685072846067
 20
-25.0023105860561
 30
0.0
 10
12.48685072846067
 20
-25.26033968147847
 30
0.0
  0
SPLINE
  5
116
330
1F
100
AcDbEntity
  8
Layer 1
 62
   175
420
  3691172
370
    25
100
AcDbSpline
210
0.0
220
0.0
230
1.0
 70
    11
 71
     3
 72
    17
 73
    13
 74
     0
 42
0.0000000001
 43
0.0000000001
 12
1.0
 22
0.0
 32
0.0
 13
1.0
 23
0.0
 33
0.0
 40
0.0
 40
0.0
 40
0.0
 40
0.0
 40
1.0
 40
1.0
 40
1.0
 40
2.0
 40
2.0
 40
2.0
 40
3.0
 40
3.0
 40
3.0
 40
4.0
 40
4.0
 40
4.0
 40
4.0
 10
12.01964772219288
 20
-25.67848704801832
 30
0.0
 10
11.78907945616927
 20
-25.67848704801832
 30
0.0
 10
11.60149190652457
 20
-25.49091639663056
 30
0.0
 10
11.60149190652457
 20
-25.26033968147847
 30
0.0
 10
11.60149190652457
 20
-25.02976296632652
 30
0.0
 10
11.78907945616927
 20
-24.8421923149386
 30
0.0
 10
12.01964772219288
 20
-24.8421923149386
 30
0.0
 10
12.2502159882165
 20
-24.8421923149386
 30
0.0
 10
12.43780353786123
 20
-25.02976296632652
 30
0.0
 10
12.43780353786123
 20
-25.26033968147847
 30
0.0
 10
12.43780353786123
 20
-25.49091639663056
 30
0.0
 10
12.2502159882165
 20
-25.67848704801832
 30
0.0
 10
12.01964772219288
 20
-25.67848704801832
 30
0.0
  0
POLYLINE
  5
117
330
1F
100
AcDbEntity
  8
Layer 1
 62
   175
420
  3691172
370
    25
100
AcDb2dPolyline
 66
     1
 10
0.0
 20
0.0
 30
0.0
  0
VERTEX
  5
118
330
117
100
AcDbEntity
  8
Layer 1
 62
   175
420
  3691172
370
    25
100
AcDbVertex
100
AcDb2dVertex
 10
11.82802968555024
 20
-25.04615783691403
 30
0.0
  0
VERTEX
  5
119
330
117
100
AcDbEntity
  8
Layer 1
 62
   175
420
  3691172
370
    25
100
AcDbVertex
100
AcDb2dVertex
 10
11.92715756098427
 20
-25.04615783691403
 30
0.0
  0
VERTEX
  5
11A
330
117
100
AcDbEntity
  8
Layer 1
 62
   175
420
  3691172
370
    25
100
AcDbVertex
100
AcDb2dVertex
 10
11.92715756098427
 20
-25.39416673448348
 30
0.0
  0
VERTEX
  5
11B
330
117
100
AcDbEntity
  8
Layer 1
 62
   175
420
  3691172
370
    25
100
AcDbVertex
100
AcDb2dVertex
 10
11.86138878928288
 20
-25.39416673448348
 30
0.0
  0
VERTEX
  5
11C
330
117
100
AcDbEntity
  8
Layer 1
 62
   175
420
  3691172
370
    25
100
AcDbVertex
100
AcDb2dVertex
 10
11.86138878928288
 20
-25.10838656955292
 30
0.0
  0
VERTEX
  5
11D
330
117
100
AcDbEntity
  8
Layer 1
 62
   175
420
  3691172
370
    25
100
AcDbVertex
100
AcDb2dVertex
 10
11.78970638910927
 20
-25.10838656955292
 30
0.0
  0
VERTEX
  5
11E
330
117
100
AcDbEntity
  8
Layer 1
 62
   175
420
  3691172
370
    25
100
AcDbVertex
100
AcDb2dVertex
 10
11.82802968555024
 20
-25.04615783691403
 30
0.0
  0
SEQEND
  5
11F
330
117
100
AcDbEntity
  8
Layer 1
 62
   175
420
  3691172
370
    25
  0
SPLINE
  5
120
330
1F
100
AcDbEntity
  8
Layer 1
 62
   175
420
  3691172
370
    25
100
AcDbSpline
210
0.0
220
0.0
230
1.0
 70
    11
 71
     3
 72
    68
 73
    64
 74
     0
 42
0.0000000001
 43
0.0000000001
 12
1.0
 22
0.0
 32
0.0
 13
1.0
 23
0.0
 33
0.0
 40
0.0
 40
0.0
 40
0.0
 40
0.0
 40
1.0
 40
1.0
 40
1.0
 40
2.0
 40
2.0
 40
2.0
 40
3.0
 40
3.0
 40
3.0
 40
4.0
 40
4.0
 40
4.0
 40
5.0
 40
5.0
 40
5.0
 40
6.0
 40
6.0
 40
6.0
 40
7.0
 40
7.0
 40
7.0
 40
8.0
 40
8.0
 40
8.0
 40
9.0
 40
9.0
 40
9.0
 40
10.0
 40
10.0
 40
10.0
 40
11.0
 40
11.0
 40
11.0
 40
12.0
 40
12.0
 40
12.0
 40
13.0
 40
13.0
 40
13.0
 40
14.0
 40
14.0
 40
14.0
 40
15.0
 40
15.0
 40
15.0
 40
16.0
 40
16.0
 40
16.0
 40
17.0
 40
17.0
 40
17.0
 40
18.0
 40
18.0
 40
18.0
 40
19.0
 40
19.0
 40
19.0
 40
20.0
 40
20.0
 40
20.0
 40
21.0
 40
21.0
 40
21.0
 40
21.0
 10
12.21395497851899
 20
-25.08045959472653
 30
0.0
 10
12.21395497851899
 20
-25.08045959472653
 30
0.0
 10
12.25057607226899
 20
-25.09631517198348
 30
0.0
 10
12.25057607226899
 20
-25.09631517198348
 30
0.0
 10
12.25057607226899
 20
-25.09631517198348
 30
0.0
 10
12.22846778233843
 20
-25.14606560601126
 30
0.0
 10
12.22846778233843
 20
-25.14606560601126
 30
0.0
 10
12.24574751324121
 20
-25.15694342719181
 30
0.0
 10
12.2590260505676
 20
-25.16986931694876
 30
0.0
 10
12.26829661263357
 20
-25.18482971191403
 30
0.0
 10
12.26829661263357
 20
-25.18482971191403
 30
0.0
 10
12.21577925152246
 20
-25.21602545844181
 30
0.0
 10
12.21577925152246
 20
-25.21602545844181
 30
0.0
 10
12.21216461393566
 20
-25.21118333604598
 30
0.0
 10
12.20808204015093
 20
-25.20657179090709
 30
0.0
 10
12.20353831185232
 20
-25.2022043863932
 30
0.0
 10
12.20353831185232
 20
-25.2022043863932
 30
0.0
 10
12.14299143685232
 20
-25.33852979871959
 30
0.0
 10
12.14299143685232
 20
-25.33852979871959
 30
0.0
 10
12.15166521072385
 20
-25.34186638726126
 30
0.0
 10
12.16009484397038
 20
-25.34353468153209
 30
0.0
 10
12.16829389995996
 20
-25.34353468153209
 30
0.0
 10
12.18799469206066
 20
-25.34353468153209
 30
0.0
 10
12.20541005664399
 20
-25.33581712510848
 30
0.0
 10
12.22053999370996
 20
-25.32035488552515
 30
0.0
 10
12.22053999370996
 20
-25.32035488552515
 30
0.0
 10
12.26191504796343
 20
-25.36057027180987
 30
0.0
 10
12.26191504796343
 20
-25.36057027180987
 30
0.0
 10
12.24835167990788
 20
-25.37445916069876
 30
0.0
 10
12.23368289735579
 20
-25.38463168674042
 30
0.0
 10
12.21791548199121
 20
-25.39108784993487
 30
0.0
 10
12.20214806662663
 20
-25.39755757649737
 30
0.0
 10
12.18408844206066
 20
-25.40078565809459
 30
0.0
 10
12.16374338997732
 20
-25.40078565809459
 30
0.0
 10
12.14876264995996
 20
-25.40078565809459
 30
0.0
 10
12.13377512825857
 20
-25.39858839246959
 30
0.0
 10
12.11879438824121
 20
-25.39418029785153
 30
0.0
 10
12.11879438824121
 20
-25.39418029785153
 30
0.0
 10
12.09275272157454
 20
-25.45164828830292
 30
0.0
 10
12.09275272157454
 20
-25.45164828830292
 30
0.0
 10
12.09275272157454
 20
-25.45164828830292
 30
0.0
 10
12.05655209223427
 20
-25.43603685167098
 30
0.0
 10
12.05655209223427
 20
-25.43603685167098
 30
0.0
 10
12.05655209223427
 20
-25.43603685167098
 30
0.0
 10
12.08493343989052
 20
-25.37368604871959
 30
0.0
 10
12.08493343989052
 20
-25.37368604871959
 30
0.0
 10
12.05481598112316
 20
-25.34402296278209
 30
0.0
 10
12.03976064258149
 20
-25.30789015028209
 30
0.0
 10
12.03976064258149
 20
-25.26528761121959
 30
0.0
 10
12.03976064258149
 20
-25.23878479003903
 30
0.0
 10
12.04526737001204
 20
-25.21527947319876
 30
0.0
 10
12.05628760655718
 20
-25.1947580973307
 30
0.0
 10
12.06730784310232
 20
-25.1742502848307
 30
0.0
 10
12.08265479405718
 20
-25.15835401746959
 30
0.0
 10
12.10233524110579
 20
-25.14706929524737
 30
0.0
 10
12.12201568815441
 20
-25.13578457302515
 30
0.0
 10
12.14405616124468
 20
-25.13014221191403
 30
0.0
 10
12.16845666037663
 20
-25.13014221191403
 30
0.0
 10
12.17522478103635
 20
-25.13014221191403
 30
0.0
 10
12.18277957704329
 20
-25.13077969021265
 30
0.0
 10
12.19112783008149
 20
-25.13204108344181
 30
0.0
 10
12.19112783008149
 20
-25.13204108344181
 30
0.0
 10
12.21395497851899
 20
-25.08045959472653
 30
0.0
 10
12.21395497851899
 20
-25.08045959472653
 30
0.0
  0
SPLINE
  5
121
330
1F
100
AcDbEntity
  8
Layer 1
 62
   175
420
  3691172
370
    25
100
AcDbSpline
210
0.0
220
0.0
230
1.0
 70
    11
 71
     3
 72
    17
 73
    13
 74
     0
 42
0.0000000001
 43
0.0000000001
 12
1.0
 22
0.0
 32
0.0
 13
1.0
 23
0.0
 33
0.0
 40
0.0
 40
0.0
 40
0.0
 40
0.0
 40
1.0
 40
1.0
 40
1.0
 40
2.0
 40
2.0
 40
2.0
 40
3.0
 40
3.0
 40
3.0
 40
4.0
 40
4.0
 40
4.0
 40
4.0
 10
12.16619835959538
 20
-25.18834262424042
 30
0.0
 10
12.14683665169607
 20
-25.18945482042098
 30
0.0
 10
12.13161177105371
 20
-25.19669765896265
 30
0.0
 10
12.12051693598427
 20
-25.21009826660153
 30
0.0
 10
12.10941531923079
 20
-25.22349887424042
 30
0.0
 10
12.1038746833801
 20
-25.24225701226126
 30
0.0
 10
12.1038746833801
 20
-25.26637268066403
 30
0.0
 10
12.1038746833801
 20
-25.28183492024737
 30
0.0
 10
12.10675011740788
 20
-25.29625278049042
 30
0.0
 10
12.11250098546343
 20
-25.30965338812931
 30
0.0
 10
12.11250098546343
 20
-25.30965338812931
 30
0.0
 10
12.16619835959538
 20
-25.18834262424042
 30
0.0
 10
12.16619835959538
 20
-25.18834262424042
 30
0.0
  0
SPLINE
  5
122
330
1F
100
AcDbEntity
  8
Layer 1
 62
   175
420
  3691172
370
    25
100
AcDbSpline
210
0.0
220
0.0
230
1.0
 70
    11
 71
     3
 72
    17
 73
    13
 74
     0
 42
0.0000000001
 43
0.0000000001
 12
1.0
 22
0.0
 32
0.0
 13
1.0
 23
0.0
 33
0.0
 40
0.0
 40
0.0
 40
0.0
 40
0.0
 40
1.0
 40
1.0
 40
1.0
 40
2.0
 40
2.0
 40
2.0
 40
3.0
 40
3.0
 40
3.0
 40
4.0
 40
4.0
 40
4.0
 40
4.0
 10
13.58230539869581
 20
-25.26265462239583
 30
0.0
 10
13.58230539869581
 20
-25.54994056013389
 30
0.0
 10
13.34941413103024
 20
-25.78283182779945
 30
0.0
 10
13.06212819329234
 20
-25.78283182779945
 30
0.0
 10
12.77484225555413
 20
-25.78283182779945
 30
0.0
 10
12.5419509878886
 20
-25.54994056013389
 30
0.0
 10
12.5419509878886
 20
-25.26265462239583
 30
0.0
 10
12.5419509878886
 20
-24.97536868465777
 30
0.0
 10
12.77484225555413
 20
-24.74247741699221
 30
0.0
 10
13.06212819329234
 20
-24.74247741699221
 30
0.0
 10
13.34941413103024
 20
-24.74247741699221
 30
0.0
 10
13.58230539869581
 20
-24.97536868465777
 30
0.0
 10
13.58230539869581
 20
-25.26265462239583
 30
0.0
  0
SPLINE
  5
123
330
1F
100
AcDbEntity
  8
Layer 1
 62
   175
420
  3691172
370
    25
100
AcDbSpline
210
0.0
220
0.0
230
1.0
 70
    11
 71
     3
 72
    17
 73
    13
 74
     0
 42
0.0000000001
 43
0.0000000001
 12
1.0
 22
0.0
 32
0.0
 13
1.0
 23
0.0
 33
0.0
 40
0.0
 40
0.0
 40
0.0
 40
0.0
 40
1.0
 40
1.0
 40
1.0
 40
2.0
 40
2.0
 40
2.0
 40
3.0
 40
3.0
 40
3.0
 40
4.0
 40
4.0
 40
4.0
 40
4.0
 10
13.06212819329234
 20
-25.73377802426014
 30
0.0
 10
12.80234284112011
 20
-25.73377802426014
 30
0.0
 10
12.59099634229943
 20
-25.52243152543959
 30
0.0
 10
12.59099634229943
 20
-25.26265462239583
 30
0.0
 10
12.59099634229943
 20
-25.00287771935207
 30
0.0
 10
12.80234284112011
 20
-24.79153122053152
 30
0.0
 10
13.06212819329234
 20
-24.79153122053152
 30
0.0
 10
13.32191354546441
 20
-24.79153122053152
 30
0.0
 10
13.53326004428512
 20
-25.00287771935207
 30
0.0
 10
13.53326004428512
 20
-25.26265462239583
 30
0.0
 10
13.53326004428512
 20
-25.52243152543959
 30
0.0
 10
13.32191354546441
 20
-25.73377802426014
 30
0.0
 10
13.06212819329234
 20
-25.73377802426014
 30
0.0
  0
SPLINE
  5
124
330
1F
100
AcDbEntity
  8
Layer 1
 62
   175
420
  3691172
370
    25
100
AcDbSpline
210
0.0
220
0.0
230
1.0
 70
    11
 71
     3
 72
    74
 73
    70
 74
     0
 42
0.0000000001
 43
0.0000000001
 12
1.0
 22
0.0
 32
0.0
 13
1.0
 23
0.0
 33
0.0
 40
0.0
 40
0.0
 40
0.0
 40
0.0
 40
1.0
 40
1.0
 40
1.0
 40
2.0
 40
2.0
 40
2.0
 40
3.0
 40
3.0
 40
3.0
 40
4.0
 40
4.0
 40
4.0
 40
5.0
 40
5.0
 40
5.0
 40
6.0
 40
6.0
 40
6.0
 40
7.0
 40
7.0
 40
7.0
 40
8.0
 40
8.0
 40
8.0
 40
9.0
 40
9.0
 40
9.0
 40
10.0
 40
10.0
 40
10.0
 40
11.0
 40
11.0
 40
11.0
 40
12.0
 40
12.0
 40
12.0
 40
13.0
 40
13.0
 40
13.0
 40
14.0
 40
14.0
 40
14.0
 40
15.0
 40
15.0
 40
15.0
 40
16.0
 40
16.0
 40
16.0
 40
17.0
 40
17.0
 40
17.0
 40
18.0
 40
18.0
 40
18.0
 40
19.0
 40
19.0
 40
19.0
 40
20.0
 40
20.0
 40
20.0
 40
21.0
 40
21.0
 40
21.0
 40
22.0
 40
22.0
 40
22.0
 40
23.0
 40
23.0
 40
23.0
 40
23.0
 10
12.87169016732107
 20
-25.04846360948348
 30
0.0
 10
12.87169016732107
 20
-25.04846360948348
 30
0.0
 10
13.03469472461274
 20
-25.04846360948348
 30
0.0
 10
13.03469472461274
 20
-25.04846360948348
 30
0.0
 10
13.03469472461274
 20
-25.04846360948348
 30
0.0
 10
13.03469472461274
 20
-25.10974290635848
 30
0.0
 10
13.03469472461274
 20
-25.10974290635848
 30
0.0
 10
13.03469472461274
 20
-25.10974290635848
 30
0.0
 10
12.9211354255676
 20
-25.10974290635848
 30
0.0
 10
12.9211354255676
 20
-25.10974290635848
 30
0.0
 10
12.9211354255676
 20
-25.10974290635848
 30
0.0
 10
12.90694136089746
 20
-25.1729075113932
 30
0.0
 10
12.90694136089746
 20
-25.1729075113932
 30
0.0
 10
12.9108815193176
 20
-25.1718088785807
 30
0.0
 10
12.91474707921343
 20
-25.17098151312931
 30
0.0
 10
12.91853804058496
 20
-25.17042541503903
 30
0.0
 10
12.92232222027246
 20
-25.16986931694876
 30
0.0
 10
12.92594363954329
 20
-25.16959804958765
 30
0.0
 10
12.92941586176552
 20
-25.16959804958765
 30
0.0
 10
12.96095747417871
 20
-25.16959804958765
 30
0.0
 10
12.98718224631413
 20
-25.18036736382376
 30
0.0
 10
13.00807661480371
 20
-25.20189242892792
 30
0.0
 10
13.02897776497732
 20
-25.22341749403209
 30
0.0
 10
13.03942834006413
 20
-25.25097825792098
 30
0.0
 10
13.03942834006413
 20
-25.28457472059459
 30
0.0
 10
13.03942834006413
 20
-25.31848314073348
 30
0.0
 10
13.02787235048079
 20
-25.34707472059459
 30
0.0
 10
13.00476715299816
 20
-25.37033589680987
 30
0.0
 10
12.98166195551552
 20
-25.39359707302515
 30
0.0
 10
12.95355187522038
 20
-25.40522087944876
 30
0.0
 10
12.92043013042871
 20
-25.40522087944876
 30
0.0
 10
12.89077382617524
 20
-25.40522087944876
 30
0.0
 10
12.86530860265093
 20
-25.3967844645182
 30
0.0
 10
12.84401411480371
 20
-25.37991163465709
 30
0.0
 10
12.82271962695649
 20
-25.36303880479598
 30
0.0
 10
12.80876292122732
 20
-25.33992682562931
 30
0.0
 10
12.80213721593218
 20
-25.31058926052515
 30
0.0
 10
12.80213721593218
 20
-25.31058926052515
 30
0.0
 10
12.87169016732107
 20
-25.31058926052515
 30
0.0
 10
12.87169016732107
 20
-25.31058926052515
 30
0.0
 10
12.87705447938704
 20
-25.32148064507376
 30
0.0
 10
12.88411421245996
 20
-25.32972717285153
 30
0.0
 10
12.89286936653982
 20
-25.33531528049042
 30
0.0
 10
12.90161773893566
 20
-25.34091695149737
 30
0.0
 10
12.91128163867524
 20
-25.34371100531681
 30
0.0
 10
12.92184750239052
 20
-25.34371100531681
 30
0.0
 10
12.9365162849426
 20
-25.34371100531681
 30
0.0
 10
12.94897423850163
 20
-25.3384348551432
 30
0.0
 10
12.95922814475163
 20
-25.32786899142792
 30
0.0
 10
12.9694752693176
 20
-25.31730312771265
 30
0.0
 10
12.9746022224426
 20
-25.30373975965709
 30
0.0
 10
12.9746022224426
 20
-25.28717888726126
 30
0.0
 10
12.9746022224426
 20
-25.27109273274737
 30
0.0
 10
12.96983469857107
 20
-25.25788201226126
 30
0.0
 10
12.96029286914399
 20
-25.24754672580292
 30
0.0
 10
12.95074425803288
 20
-25.23722500271265
 30
0.0
 10
12.93919505013357
 20
-25.23205735948348
 30
0.0
 10
12.92563168207802
 20
-25.23205735948348
 30
0.0
 10
12.91837528016829
 20
-25.23205735948348
 30
0.0
 10
12.91124094857107
 20
-25.23386128743487
 30
0.0
 10
12.90422190560232
 20
-25.23749627007376
 30
0.0
 10
12.89720286263357
 20
-25.24111768934459
 30
0.0
 10
12.89029910829329
 20
-25.24657016330292
 30
0.0
 10
12.88352420594954
 20
-25.25381300184459
 30
0.0
 10
12.88352420594954
 20
-25.25381300184459
 30
0.0
 10
12.8295826911926
 20
-25.2417551676432
 30
0.0
 10
12.8295826911926
 20
-25.2417551676432
 30
0.0
 10
12.8295826911926
 20
-25.2417551676432
 30
0.0
 10
12.87169016732107
 20
-25.04846360948348
 30
0.0
 10
12.87169016732107
 20
-25.04846360948348
 30
0.0
  0
SPLINE
  5
125
330
1F
100
AcDbEntity
  8
Layer 1
 62
   175
420
  3691172
370
    25
100
AcDbSpline
210
0.0
220
0.0
230
1.0
 70
    11
 71
     3
 72
    68
 73
    64
 74
     0
 42
0.0000000001
 43
0.0000000001
 12
1.0
 22
0.0
 32
0.0
 13
1.0
 23
0.0
 33
0.0
 40
0.0
 40
0.0
 40
0.0
 40
0.0
 40
1.0
 40
1.0
 40
1.0
 40
2.0
 40
2.0
 40
2.0
 40
3.0
 40
3.0
 40
3.0
 40
4.0
 40
4.0
 40
4.0
 40
5.0
 40
5.0
 40
5.0
 40
6.0
 40
6.0
 40
6.0
 40
7.0
 40
7.0
 40
7.0
 40
8.0
 40
8.0
 40
8.0
 40
9.0
 40
9.0
 40
9.0
 40
10.0
 40
10.0
 40
10.0
 40
11.0
 40
11.0
 40
11.0
 40
12.0
 40
12.0
 40
12.0
 40
13.0
 40
13.0
 40
13.0
 40
14.0
 40
14.0
 40
14.0
 40
15.0
 40
15.0
 40
15.0
 40
16.0
 40
16.0
 40
16.0
 40
17.0
 40
17.0
 40
17.0
 40
18.0
 40
18.0
 40
18.0
 40
19.0
 40
19.0
 40
19.0
 40
20.0
 40
20.0
 40
20.0
 40
21.0
 40
21.0
 40
21.0
 40
21.0
 10
13.25643544726899
 20
-25.08276536729598
 30
0.0
 10
13.25643544726899
 20
-25.08276536729598
 30
0.0
 10
13.29305654101899
 20
-25.09862094455292
 30
0.0
 10
13.29305654101899
 20
-25.09862094455292
 30
0.0
 10
13.29305654101899
 20
-25.09862094455292
 30
0.0
 10
13.27094825108843
 20
-25.1483713785807
 30
0.0
 10
13.27094825108843
 20
-25.1483713785807
 30
0.0
 10
13.28822798199121
 20
-25.15924919976126
 30
0.0
 10
13.3015065193176
 20
-25.1721750895182
 30
0.0
 10
13.31077708138357
 20
-25.18713548448348
 30
0.0
 10
13.31077708138357
 20
-25.18713548448348
 30
0.0
 10
13.25825972027246
 20
-25.21833123101126
 30
0.0
 10
13.25825972027246
 20
-25.21833123101126
 30
0.0
 10
13.25464508268566
 20
-25.21348910861542
 30
0.0
 10
13.25056250890093
 20
-25.20887756347653
 30
0.0
 10
13.24601878060232
 20
-25.20451015896265
 30
0.0
 10
13.24601878060232
 20
-25.20451015896265
 30
0.0
 10
13.18547190560232
 20
-25.34083557128903
 30
0.0
 10
13.18547190560232
 20
-25.34083557128903
 30
0.0
 10
13.19414567947385
 20
-25.3441721598307
 30
0.0
 10
13.20257531272038
 20
-25.34584045410153
 30
0.0
 10
13.21077436870996
 20
-25.34584045410153
 30
0.0
 10
13.23047516081066
 20
-25.34584045410153
 30
0.0
 10
13.24789052539399
 20
-25.33812289767792
 30
0.0
 10
13.26302046245996
 20
-25.32266065809459
 30
0.0
 10
13.26302046245996
 20
-25.32266065809459
 30
0.0
 10
13.30439551671343
 20
-25.36287604437931
 30
0.0
 10
13.30439551671343
 20
-25.36287604437931
 30
0.0
 10
13.29083214865788
 20
-25.3767649332682
 30
0.0
 10
13.27616336610579
 20
-25.38693745930987
 30
0.0
 10
13.26039595074121
 20
-25.39339362250431
 30
0.0
 10
13.24462853537663
 20
-25.39986334906681
 30
0.0
 10
13.22656891081066
 20
-25.40309143066403
 30
0.0
 10
13.20622385872732
 20
-25.40309143066403
 30
0.0
 10
13.19124311870996
 20
-25.40309143066403
 30
0.0
 10
13.17625559700857
 20
-25.40089416503903
 30
0.0
 10
13.16127485699121
 20
-25.39648607042098
 30
0.0
 10
13.16127485699121
 20
-25.39648607042098
 30
0.0
 10
13.13523319032454
 20
-25.45395406087237
 30
0.0
 10
13.13523319032454
 20
-25.45395406087237
 30
0.0
 10
13.13523319032454
 20
-25.45395406087237
 30
0.0
 10
13.09903256098427
 20
-25.43834262424042
 30
0.0
 10
13.09903256098427
 20
-25.43834262424042
 30
0.0
 10
13.09903256098427
 20
-25.43834262424042
 30
0.0
 10
13.12741390864052
 20
-25.37599182128903
 30
0.0
 10
13.12741390864052
 20
-25.37599182128903
 30
0.0
 10
13.09729644987316
 20
-25.34632873535153
 30
0.0
 10
13.08224111133149
 20
-25.31019592285153
 30
0.0
 10
13.08224111133149
 20
-25.26759338378903
 30
0.0
 10
13.08224111133149
 20
-25.24109056260848
 30
0.0
 10
13.08774783876204
 20
-25.2175852457682
 30
0.0
 10
13.09876807530718
 20
-25.19706386990015
 30
0.0
 10
13.10978831185232
 20
-25.17655605740015
 30
0.0
 10
13.12513526280718
 20
-25.16065979003903
 30
0.0
 10
13.14481570985579
 20
-25.14937506781681
 30
0.0
 10
13.16449615690441
 20
-25.13809034559459
 30
0.0
 10
13.18653662999468
 20
-25.13244798448348
 30
0.0
 10
13.21093712912663
 20
-25.13244798448348
 30
0.0
 10
13.21770524978635
 20
-25.13244798448348
 30
0.0
 10
13.22526004579329
 20
-25.13308546278209
 30
0.0
 10
13.23360829883149
 20
-25.13434685601126
 30
0.0
 10
13.23360829883149
 20
-25.13434685601126
 30
0.0
 10
13.25643544726899
 20
-25.08276536729598
 30
0.0
 10
13.25643544726899
 20
-25.08276536729598
 30
0.0
  0
SPLINE
  5
126
330
1F
100
AcDbEntity
  8
Layer 1
 62
   175
420
  3691172
370
    25
100
AcDbSpline
210
0.0
220
0.0
230
1.0
 70
    11
 71
     3
 72
    17
 73
    13
 74
     0
 42
0.0000000001
 43
0.0000000001
 12
1.0
 22
0.0
 32
0.0
 13
1.0
 23
0.0
 33
0.0
 40
0.0
 40
0.0
 40
0.0
 40
0.0
 40
1.0
 40
1.0
 40
1.0
 40
2.0
 40
2.0
 40
2.0
 40
3.0
 40
3.0
 40
3.0
 40
4.0
 40
4.0
 40
4.0
 40
4.0
 10
13.20867882834538
 20
-25.19064839680987
 30
0.0
 10
13.18931712044607
 20
-25.19176059299042
 30
0.0
 10
13.17409223980371
 20
-25.19900343153209
 30
0.0
 10
13.16299740473427
 20
-25.21240403917098
 30
0.0
 10
13.15189578798079
 20
-25.22580464680987
 30
0.0
 10
13.1463551521301
 20
-25.2445627848307
 30
0.0
 10
13.1463551521301
 20
-25.26867845323348
 30
0.0
 10
13.1463551521301
 20
-25.28414069281681
 30
0.0
 10
13.14923058615788
 20
-25.29855855305987
 30
0.0
 10
13.15498145421343
 20
-25.31195916069876
 30
0.0
 10
13.15498145421343
 20
-25.31195916069876
 30
0.0
 10
13.20867882834538
 20
-25.19064839680987
 30
0.0
 10
13.20867882834538
 20
-25.19064839680987
 30
0.0
  0
SPLINE
  5
127
330
1F
100
AcDbEntity
  8
Layer 1
 62
   175
420
  3691172
370
    25
100
AcDbSpline
210
0.0
220
0.0
230
1.0
 70
    11
 71
     3
 72
    17
 73
    13
 74
     0
 42
0.0000000001
 43
0.0000000001
 12
1.0
 22
0.0
 32
0.0
 13
1.0
 23
0.0
 33
0.0
 40
0.0
 40
0.0
 40
0.0
 40
0.0
 40
1.0
 40
1.0
 40
1.0
 40
2.0
 40
2.0
 40
2.0
 40
3.0
 40
3.0
 40
3.0
 40
4.0
 40
4.0
 40
4.0
 40
4.0
 10
14.54385303064515
 20
-25.26033967627444
 30
0.0
 10
14.54385303064515
 20
-25.50292766047472
 30
0.0
 10
14.34719661367708
 20
-25.69958407744278
 30
0.0
 10
14.10460862947667
 20
-25.69958407744278
 30
0.0
 10
13.86202064527649
 20
-25.69958407744278
 30
0.0
 10
13.66536422830844
 20
-25.50292766047472
 30
0.0
 10
13.66536422830844
 20
-25.26033967627444
 30
0.0
 10
13.66536422830844
 20
-25.01775169207417
 30
0.0
 10
13.86202064527649
 20
-24.82109527510625
 30
0.0
 10
14.10460862947667
 20
-24.82109527510625
 30
0.0
 10
14.34719661367708
 20
-24.82109527510625
 30
0.0
 10
14.54385303064515
 20
-25.01775169207417
 30
0.0
 10
14.54385303064515
 20
-25.26033967627444
 30
0.0
  0
SPLINE
  5
128
330
1F
100
AcDbEntity
  8
Layer 1
 62
   175
420
  3691172
370
    25
100
AcDbSpline
210
0.0
220
0.0
230
1.0
 70
    11
 71
     3
 72
    17
 73
    13
 74
     0
 42
0.0000000001
 43
0.0000000001
 12
1.0
 22
0.0
 32
0.0
 13
1.0
 23
0.0
 33
0.0
 40
0.0
 40
0.0
 40
0.0
 40
0.0
 40
1.0
 40
1.0
 40
1.0
 40
2.0
 40
2.0
 40
2.0
 40
3.0
 40
3.0
 40
3.0
 40
4.0
 40
4.0
 40
4.0
 40
4.0
 10
14.10460862947667
 20
-25.65052887680346
 30
0.0
 10
13.8894515737293
 20
-25.65052887680346
 30
0.0
 10
13.71441097981928
 20
-25.47549673202181
 30
0.0
 10
13.71441097981928
 20
-25.26034812540292
 30
0.0
 10
13.71441097981928
 20
-25.04518262052708
 30
0.0
 10
13.8894515737293
 20
-24.8701504757454
 30
0.0
 10
14.10460862947667
 20
-24.8701504757454
 30
0.0
 10
14.31976568522403
 20
-24.8701504757454
 30
0.0
 10
14.49480627913417
 20
-25.04518262052708
 30
0.0
 10
14.49480627913417
 20
-25.26034812540292
 30
0.0
 10
14.49480627913417
 20
-25.47549673202181
 30
0.0
 10
14.31976568522403
 20
-25.65052887680346
 30
0.0
 10
14.10460862947667
 20
-25.65052887680346
 30
0.0
  0
POLYLINE
  5
129
330
1F
100
AcDbEntity
  8
Layer 1
 62
   175
420
  3691172
370
    25
100
AcDb2dPolyline
 66
     1
 10
0.0
 20
0.0
 30
0.0
  0
VERTEX
  5
12A
330
129
100
AcDbEntity
  8
Layer 1
 62
   175
420
  3691172
370
    25
100
AcDbVertex
100
AcDb2dVertex
 10
13.82407596376204
 20
-25.09585401746959
 30
0.0
  0
VERTEX
  5
12B
330
129
100
AcDbEntity
  8
Layer 1
 62
   175
420
  3691172
370
    25
100
AcDbVertex
100
AcDb2dVertex
 10
13.90903690126208
 20
-25.09585401746959
 30
0.0
  0
VERTEX
  5
12C
330
129
100
AcDbEntity
  8
Layer 1
 62
   175
420
  3691172
370
    25
100
AcDbVertex
100
AcDb2dVertex
 10
13.90903690126208
 20
-25.39413960774737
 30
0.0
  0
VERTEX
  5
12D
330
129
100
AcDbEntity
  8
Layer 1
 62
   175
420
  3691172
370
    25
100
AcDbVertex
100
AcDb2dVertex
 10
13.85266754362316
 20
-25.39413960774737
 30
0.0
  0
VERTEX
  5
12E
330
129
100
AcDbEntity
  8
Layer 1
 62
   175
420
  3691172
370
    25
100
AcDbVertex
100
AcDb2dVertex
 10
13.85266754362316
 20
-25.14918518066403
 30
0.0
  0
VERTEX
  5
12F
330
129
100
AcDbEntity
  8
Layer 1
 62
   175
420
  3691172
370
    25
100
AcDbVertex
100
AcDb2dVertex
 10
13.79122548633149
 20
-25.14918518066403
 30
0.0
  0
VERTEX
  5
130
330
129
100
AcDbEntity
  8
Layer 1
 62
   175
420
  3691172
370
    25
100
AcDbVertex
100
AcDb2dVertex
 10
13.82407596376204
 20
-25.09585401746959
 30
0.0
  0
SEQEND
  5
131
330
129
100
AcDbEntity
  8
Layer 1
 62
   175
420
  3691172
370
    25
  0
SPLINE
  5
132
330
1F
100
AcDbEntity
  8
Layer 1
 62
   175
420
  3691172
370
    25
100
AcDbSpline
210
0.0
220
0.0
230
1.0
 70
    11
 71
     3
 72
    38
 73
    34
 74
     0
 42
0.0000000001
 43
0.0000000001
 12
1.0
 22
0.0
 32
0.0
 13
1.0
 23
0.0
 33
0.0
 40
0.0
 40
0.0
 40
0.0
 40
0.0
 40
1.0
 40
1.0
 40
1.0
 40
2.0
 40
2.0
 40
2.0
 40
3.0
 40
3.0
 40
3.0
 40
4.0
 40
4.0
 40
4.0
 40
5.0
 40
5.0
 40
5.0
 40
6.0
 40
6.0
 40
6.0
 40
7.0
 40
7.0
 40
7.0
 40
8.0
 40
8.0
 40
8.0
 40
9.0
 40
9.0
 40
9.0
 40
10.0
 40
10.0
 40
10.0
 40
11.0
 40
11.0
 40
11.0
 40
11.0
 10
14.10370514127944
 20
-25.08833991156681
 30
0.0
 10
14.12546756532458
 20
-25.08833991156681
 30
0.0
 10
14.14422570334542
 20
-25.0936838785807
 30
0.0
 10
14.15997277365792
 20
-25.10435824924042
 30
0.0
 10
14.17571984397042
 20
-25.1150461832682
 30
0.0
 10
14.18788618511625
 20
-25.13136291503903
 30
0.0
 10
14.19647179709542
 20
-25.15333557128903
 30
0.0
 10
14.20505740907458
 20
-25.17530822753903
 30
0.0
 10
14.20935021506417
 20
-25.20589362250431
 30
0.0
 10
14.20935021506417
 20
-25.24509175618487
 30
0.0
 10
14.20935021506417
 20
-25.28471035427515
 30
0.0
 10
14.20498959223431
 20
-25.31552632649737
 30
0.0
 10
14.19626834657458
 20
-25.33756679958765
 30
0.0
 10
14.18755388259889
 20
-25.35960727267792
 30
0.0
 10
14.17582156923083
 20
-25.3757883707682
 30
0.0
 10
14.1610917515225
 20
-25.38612365722653
 30
0.0
 10
14.14635515213014
 20
-25.39647250705292
 30
0.0
 10
14.12776655621
 20
-25.40164015028209
 30
0.0
 10
14.10532596376208
 20
-25.40164015028209
 30
0.0
 10
14.08288537131417
 20
-25.40164015028209
 30
0.0
 10
14.06402550803292
 20
-25.39643181694876
 30
0.0
 10
14.04874637391833
 20
-25.38602871365015
 30
0.0
 10
14.03347402148778
 20
-25.37562561035153
 30
0.0
 10
14.02150434917875
 20
-25.3597971598307
 30
0.0
 10
14.01285770204333
 20
-25.33858405219181
 30
0.0
 10
14.00420427322389
 20
-25.31735738118487
 30
0.0
 10
13.99987755881417
 20
-25.28713819715709
 30
0.0
 10
13.99987755881417
 20
-25.24794006347653
 30
0.0
 10
13.99987755881417
 20
-25.19318474663626
 30
0.0
 10
14.00832753711278
 20
-25.15351189507376
 30
0.0
 10
14.02522749371
 20
-25.12890794542098
 30
0.0
 10
14.04401275846694
 20
-25.1018625895182
 30
0.0
 10
14.07017649544611
 20
-25.08833991156681
 30
0.0
 10
14.10370514127944
 20
-25.08833991156681
 30
0.0
  0
SPLINE
  5
133
330
1F
100
AcDbEntity
  8
Layer 1
 62
   175
420
  3691172
370
    25
100
AcDbSpline
210
0.0
220
0.0
230
1.0
 70
    11
 71
     3
 72
    32
 73
    28
 74
     0
 42
0.0000000001
 43
0.0000000001
 12
1.0
 22
0.0
 32
0.0
 13
1.0
 23
0.0
 33
0.0
 40
0.0
 40
0.0
 40
0.0
 40
0.0
 40
1.0
 40
1.0
 40
1.0
 40
2.0
 40
2.0
 40
2.0
 40
3.0
 40
3.0
 40
3.0
 40
4.0
 40
4.0
 40
4.0
 40
5.0
 40
5.0
 40
5.0
 40
6.0
 40
6.0
 40
6.0
 40
7.0
 40
7.0
 40
7.0
 40
8.0
 40
8.0
 40
8.0
 40
9.0
 40
9.0
 40
9.0
 40
9.0
 10
14.10502078798083
 20
-25.14229498969181
 30
0.0
 10
14.09543826844958
 20
-25.14229498969181
 30
0.0
 10
14.08694081836278
 20
-25.14536031087237
 30
0.0
 10
14.07952165603639
 20
-25.15151807996959
 30
0.0
 10
14.07210249371
 20
-25.15766228569876
 30
0.0
 10
14.06643300586278
 20
-25.16824171278209
 30
0.0
 10
14.06252675586278
 20
-25.18324279785153
 30
0.0
 10
14.05861372417875
 20
-25.19825744628903
 30
0.0
 10
14.05666059917875
 20
-25.22023010253903
 30
0.0
 10
14.05666059917875
 20
-25.24914720323348
 30
0.0
 10
14.05666059917875
 20
-25.28686692979598
 30
0.0
 10
14.06114329232111
 20
-25.3129221598307
 30
0.0
 10
14.07011546028986
 20
-25.3273264567057
 30
0.0
 10
14.07908084657458
 20
-25.34171719021265
 30
0.0
 10
14.09071821636625
 20
-25.34891933865015
 30
0.0
 10
14.10502078798083
 20
-25.34891933865015
 30
0.0
 10
14.11878082487319
 20
-25.34891933865015
 30
0.0
 10
14.12970611784194
 20
-25.3420969645182
 30
0.0
 10
14.13780344857111
 20
-25.32843865288626
 30
0.0
 10
14.14765045377944
 20
-25.3119455973307
 30
0.0
 10
14.15257395638361
 20
-25.28437127007376
 30
0.0
 10
14.15257395638361
 20
-25.24570210774737
 30
0.0
 10
14.15257395638361
 20
-25.20650397406681
 30
0.0
 10
14.1481522983975
 20
-25.17947218153209
 30
0.0
 10
14.13931576410931
 20
-25.16459316677515
 30
0.0
 10
14.13047922982111
 20
-25.14972771538626
 30
0.0
 10
14.11905209223431
 20
-25.14229498969181
 30
0.0
 10
14.10502078798083
 20
-25.14229498969181
 30
0.0
  0
SPLINE
  5
134
330
1F
100
AcDbEntity
  8
Layer 1
 62
   175
420
  3691172
370
    25
100
AcDbSpline
210
0.0
220
0.0
230
1.0
 70
    11
 71
     3
 72
    68
 73
    64
 74
     0
 42
0.0000000001
 43
0.0000000001
 12
1.0
 22
0.0
 32
0.0
 13
1.0
 23
0.0
 33
0.0
 40
0.0
 40
0.0
 40
0.0
 40
0.0
 40
1.0
 40
1.0
 40
1.0
 40
2.0
 40
2.0
 40
2.0
 40
3.0
 40
3.0
 40
3.0
 40
4.0
 40
4.0
 40
4.0
 40
5.0
 40
5.0
 40
5.0
 40
6.0
 40
6.0
 40
6.0
 40
7.0
 40
7.0
 40
7.0
 40
8.0
 40
8.0
 40
8.0
 40
9.0
 40
9.0
 40
9.0
 40
10.0
 40
10.0
 40
10.0
 40
11.0
 40
11.0
 40
11.0
 40
12.0
 40
12.0
 40
12.0
 40
13.0
 40
13.0
 40
13.0
 40
14.0
 40
14.0
 40
14.0
 40
15.0
 40
15.0
 40
15.0
 40
16.0
 40
16.0
 40
16.0
 40
17.0
 40
17.0
 40
17.0
 40
18.0
 40
18.0
 40
18.0
 40
19.0
 40
19.0
 40
19.0
 40
20.0
 40
20.0
 40
20.0
 40
21.0
 40
21.0
 40
21.0
 40
21.0
 10
14.38745758268569
 20
-25.12524583604598
 30
0.0
 10
14.38745758268569
 20
-25.12524583604598
 30
0.0
 10
14.41884999805028
 20
-25.13883633083765
 30
0.0
 10
14.41884999805028
 20
-25.13883633083765
 30
0.0
 10
14.41884999805028
 20
-25.13883633083765
 30
0.0
 10
14.39989519119264
 20
-25.18147956000431
 30
0.0
 10
14.39989519119264
 20
-25.18147956000431
 30
0.0
 10
14.41470638910931
 20
-25.19081115722653
 30
0.0
 10
14.42608605490792
 20
-25.20187886555987
 30
0.0
 10
14.43403418858847
 20
-25.21470981174042
 30
0.0
 10
14.43403418858847
 20
-25.21470981174042
 30
0.0
 10
14.38902415169611
 20
-25.24144321017792
 30
0.0
 10
14.38902415169611
 20
-25.24144321017792
 30
0.0
 10
14.38592492209542
 20
-25.23729281955292
 30
0.0
 10
14.38242557313708
 20
-25.23334587944876
 30
0.0
 10
14.37852610482111
 20
-25.22960238986542
 30
0.0
 10
14.37852610482111
 20
-25.22960238986542
 30
0.0
 10
14.32663265864056
 20
-25.34645080566403
 30
0.0
 10
14.32663265864056
 20
-25.34645080566403
 30
0.0
 10
14.334065384335
 20
-25.34931267632376
 30
0.0
 10
14.34128787782458
 20
-25.35075039333765
 30
0.0
 10
14.34832048416139
 20
-25.35075039333765
 30
0.0
 10
14.36520687739056
 20
-25.35075039333765
 30
0.0
 10
14.38013336393569
 20
-25.34411790635848
 30
0.0
 10
14.39310672548083
 20
-25.3308664957682
 30
0.0
 10
14.39310672548083
 20
-25.3308664957682
 30
0.0
 10
14.42856815126208
 20
-25.36534457736542
 30
0.0
 10
14.42856815126208
 20
-25.36534457736542
 30
0.0
 10
14.41693756315444
 20
-25.37723965115015
 30
0.0
 10
14.40437110265097
 20
-25.38596089680987
 30
0.0
 10
14.39084842469958
 20
-25.39150831434459
 30
0.0
 10
14.37733252843222
 20
-25.39704216851126
 30
0.0
 10
14.36185672548083
 20
-25.39982265896265
 30
0.0
 10
14.34442101584542
 20
-25.39982265896265
 30
0.0
 10
14.33157650629681
 20
-25.39982265896265
 30
0.0
 10
14.31873199674819
 20
-25.39792378743487
 30
0.0
 10
14.30589426888361
 20
-25.39413960774737
 30
0.0
 10
14.30589426888361
 20
-25.39413960774737
 30
0.0
 10
14.28356896506417
 20
-25.4434153238932
 30
0.0
 10
14.28356896506417
 20
-25.4434153238932
 30
0.0
 10
14.28356896506417
 20
-25.4434153238932
 30
0.0
 10
14.25254276063708
 20
-25.43002827962237
 30
0.0
 10
14.25254276063708
 20
-25.43002827962237
 30
0.0
 10
14.25254276063708
 20
-25.43002827962237
 30
0.0
 10
14.27686866124472
 20
-25.37658860948348
 30
0.0
 10
14.27686866124472
 20
-25.37658860948348
 30
0.0
 10
14.251057571835
 20
-25.35115729437931
 30
0.0
 10
14.23815202713014
 20
-25.32019212510848
 30
0.0
 10
14.23815202713014
 20
-25.28366597493487
 30
0.0
 10
14.23815202713014
 20
-25.26096089680987
 30
0.0
 10
14.24287207921347
 20
-25.24080573187931
 30
0.0
 10
14.25231218338014
 20
-25.22322760687931
 30
0.0
 10
14.26175906923083
 20
-25.20563591851126
 30
0.0
 10
14.27491553624472
 20
-25.19201829698348
 30
0.0
 10
14.29178158442181
 20
-25.18234761555987
 30
0.0
 10
14.30865441428292
 20
-25.17267693413626
 30
0.0
 10
14.32754140430028
 20
-25.16783481174042
 30
0.0
 10
14.34845611784194
 20
-25.16783481174042
 30
0.0
 10
14.35426123936972
 20
-25.16783481174042
 30
0.0
 10
14.36073774761625
 20
-25.16837734646265
 30
0.0
 10
14.36789242426556
 20
-25.16946241590709
 30
0.0
 10
14.36789242426556
 20
-25.16946241590709
 30
0.0
 10
14.38745758268569
 20
-25.12524583604598
 30
0.0
 10
14.38745758268569
 20
-25.12524583604598
 30
0.0
  0
SPLINE
  5
135
330
1F
100
AcDbEntity
  8
Layer 1
 62
   175
420
  3691172
370
    25
100
AcDbSpline
210
0.0
220
0.0
230
1.0
 70
    11
 71
     3
 72
    17
 73
    13
 74
     0
 42
0.0000000001
 43
0.0000000001
 12
1.0
 22
0.0
 32
0.0
 13
1.0
 23
0.0
 33
0.0
 40
0.0
 40
0.0
 40
0.0
 40
0.0
 40
1.0
 40
1.0
 40
1.0
 40
2.0
 40
2.0
 40
2.0
 40
3.0
 40
3.0
 40
3.0
 40
4.0
 40
4.0
 40
4.0
 40
4.0
 10
14.34652333789403
 20
-25.21772087944876
 30
0.0
 10
14.32992855707806
 20
-25.21867031521265
 30
0.0
 10
14.31688059700861
 20
-25.22488233778209
 30
0.0
 10
14.30736589431764
 20
-25.23637051052515
 30
0.0
 10
14.29785797331069
 20
-25.2478586832682
 30
0.0
 10
14.29310401280722
 20
-25.26393127441403
 30
0.0
 10
14.29310401280722
 20
-25.2846018473307
 30
0.0
 10
14.29310401280722
 20
-25.29785325792098
 30
0.0
 10
14.29556576410931
 20
-25.31020948621959
 30
0.0
 10
14.3004960483975
 20
-25.32169765896265
 30
0.0
 10
14.3004960483975
 20
-25.32169765896265
 30
0.0
 10
14.34652333789403
 20
-25.21772087944876
 30
0.0
 10
14.34652333789403
 20
-25.21772087944876
 30
0.0
  0
SPLINE
  5
136
330
1F
100
AcDbEntity
  8
Layer 1
 62
   175
420
  3691172
370
    25
100
AcDbSpline
210
0.0
220
0.0
230
1.0
 70
    11
 71
     3
 72
    17
 73
    13
 74
     0
 42
0.0000000001
 43
0.0000000001
 12
1.0
 22
0.0
 32
0.0
 13
1.0
 23
0.0
 33
0.0
 40
0.0
 40
0.0
 40
0.0
 40
0.0
 40
1.0
 40
1.0
 40
1.0
 40
2.0
 40
2.0
 40
2.0
 40
3.0
 40
3.0
 40
3.0
 40
4.0
 40
4.0
 40
4.0
 40
4.0
 10
13.72391412313873
 20
-21.11268711129027
 30
0.0
 10
13.72391412313873
 20
-21.48590195322916
 30
0.0
 10
13.42136371522388
 20
-21.78845236114388
 30
0.0
 10
13.04814887328497
 20
-21.78845236114388
 30
0.0
 10
12.67493403134623
 20
-21.78845236114388
 30
0.0
 10
12.37238362343151
 20
-21.48590195322916
 30
0.0
 10
12.37238362343151
 20
-21.11268711129027
 30
0.0
 10
12.37238362343151
 20
-20.73947226935138
 30
0.0
 10
12.67493403134623
 20
-20.43692186143666
 30
0.0
 10
13.04814887328497
 20
-20.43692186143666
 30
0.0
 10
13.42136371522388
 20
-20.43692186143666
 30
0.0
 10
13.72391412313873
 20
-20.73947226935138
 30
0.0
 10
13.72391412313873
 20
-21.11268711129027
 30
0.0
  0
SPLINE
  5
137
330
1F
100
AcDbEntity
  8
Layer 1
 62
   175
420
  3691172
370
    25
100
AcDbSpline
210
0.0
220
0.0
230
1.0
 70
    11
 71
     3
 72
    17
 73
    13
 74
     0
 42
0.0000000001
 43
0.0000000001
 12
1.0
 22
0.0
 32
0.0
 13
1.0
 23
0.0
 33
0.0
 40
0.0
 40
0.0
 40
0.0
 40
0.0
 40
1.0
 40
1.0
 40
1.0
 40
2.0
 40
2.0
 40
2.0
 40
3.0
 40
3.0
 40
3.0
 40
4.0
 40
4.0
 40
4.0
 40
4.0
 10
13.04814407510748
 20
-21.73272682423804
 30
0.0
 10
12.70624512610569
 20
-21.73272682423804
 30
0.0
 10
12.42809476580414
 20
-21.45458606029208
 30
0.0
 10
12.42809476580414
 20
-21.11268711129027
 30
0.0
 10
12.42809476580414
 20
-20.77078816228833
 30
0.0
 10
12.70624512610569
 20
-20.49264739834237
 30
0.0
 10
13.04814407510748
 20
-20.49264739834237
 30
0.0
 10
13.39004302410929
 20
-20.49264739834237
 30
0.0
 10
13.66820298076608
 20
-20.77078816228833
 30
0.0
 10
13.66820298076608
 20
-21.11268711129027
 30
0.0
 10
13.66820298076608
 20
-21.45458606029208
 30
0.0
 10
13.39004302410929
 20
-21.73272682423804
 30
0.0
 10
13.04814407510748
 20
-21.73272682423804
 30
0.0
  0
SPLINE
  5
138
330
1F
100
AcDbEntity
  8
Layer 1
 62
   175
420
  3691172
370
    25
100
AcDbSpline
210
0.0
220
0.0
230
1.0
 70
    11
 71
     3
 72
    65
 73
    61
 74
     0
 42
0.0000000001
 43
0.0000000001
 12
1.0
 22
0.0
 32
0.0
 13
1.0
 23
0.0
 33
0.0
 40
0.0
 40
0.0
 40
0.0
 40
0.0
 40
1.0
 40
1.0
 40
1.0
 40
2.0
 40
2.0
 40
2.0
 40
3.0
 40
3.0
 40
3.0
 40
4.0
 40
4.0
 40
4.0
 40
5.0
 40
5.0
 40
5.0
 40
6.0
 40
6.0
 40
6.0
 40
7.0
 40
7.0
 40
7.0
 40
8.0
 40
8.0
 40
8.0
 40
9.0
 40
9.0
 40
9.0
 40
10.0
 40
10.0
 40
10.0
 40
11.0
 40
11.0
 40
11.0
 40
12.0
 40
12.0
 40
12.0
 40
13.0
 40
13.0
 40
13.0
 40
14.0
 40
14.0
 40
14.0
 40
15.0
 40
15.0
 40
15.0
 40
16.0
 40
16.0
 40
16.0
 40
17.0
 40
17.0
 40
17.0
 40
18.0
 40
18.0
 40
18.0
 40
19.0
 40
19.0
 40
19.0
 40
20.0
 40
20.0
 40
20.0
 40
20.0
 10
12.68177105377567
 20
-20.99677360940862
 30
0.0
 10
12.68177105377567
 20
-20.99677360940862
 30
0.0
 10
12.6084135776472
 20
-20.99677360940862
 30
0.0
 10
12.6084135776472
 20
-20.99677360940862
 30
0.0
 10
12.61038704769928
 20
-20.95414394361001
 30
0.0
 10
12.62377409197011
 20
-20.92060173440862
 30
0.0
 10
12.64858827382775
 20
-20.89614698180445
 30
0.0
 10
12.67339567400136
 20
-20.87169222920028
 30
0.0
 10
12.70523568051178
 20
-20.85947163458223
 30
0.0
 10
12.744108293359
 20
-20.85947163458223
 30
0.0
 10
12.76810867313331
 20
-20.85947163458223
 30
0.0
 10
12.78928787235206
 20
-20.86453077086695
 30
0.0
 10
12.80765267269928
 20
-20.8746490434364
 30
0.0
 10
12.82601069136247
 20
-20.8847808793739
 30
0.0
 10
12.84070660065067
 20
-20.89937506340167
 30
0.0
 10
12.85172005551178
 20
-20.91844515888778
 30
0.0
 10
12.86274029205692
 20
-20.93752881774195
 30
0.0
 10
12.86824701948747
 20
-20.9569244340614
 30
0.0
 10
12.86824701948747
 20
-20.97661844447806
 30
0.0
 10
12.86824701948747
 20
-21.00009663458223
 30
0.0
 10
12.86156706072011
 20
-21.02535162590167
 30
0.0
 10
12.84821392486942
 20
-21.05239698180445
 30
0.0
 10
12.83486078901872
 20
-21.07944233770723
 30
0.0
 10
12.81044672651872
 20
-21.11142475958223
 30
0.0
 10
12.77495817400136
 20
-21.14831712069334
 30
0.0
 10
12.77495817400136
 20
-21.14831712069334
 30
0.0
 10
12.7306059604597
 20
-21.19507005038084
 30
0.0
 10
12.7306059604597
 20
-21.19507005038084
 30
0.0
 10
12.7306059604597
 20
-21.19507005038084
 30
0.0
 10
12.87146831940067
 20
-21.19507005038084
 30
0.0
 10
12.87146831940067
 20
-21.19507005038084
 30
0.0
 10
12.87146831940067
 20
-21.19507005038084
 30
0.0
 10
12.87146831940067
 20
-21.2646636918739
 30
0.0
 10
12.87146831940067
 20
-21.2646636918739
 30
0.0
 10
12.87146831940067
 20
-21.2646636918739
 30
0.0
 10
12.59766460846317
 20
-21.2646636918739
 30
0.0
 10
12.59766460846317
 20
-21.2646636918739
 30
0.0
 10
12.59766460846317
 20
-21.2646636918739
 30
0.0
 10
12.59766460846317
 20
-21.22866651305445
 30
0.0
 10
12.59766460846317
 20
-21.22866651305445
 30
0.0
 10
12.59766460846317
 20
-21.22866651305445
 30
0.0
 10
12.71992480811595
 20
-21.10399203388778
 30
0.0
 10
12.71992480811595
 20
-21.10399203388778
 30
0.0
 10
12.749479387109
 20
-21.07407124395723
 30
0.0
 10
12.76913948910553
 20
-21.05002339239473
 30
0.0
 10
12.77890511410553
 20
-21.03183491583223
 30
0.0
 10
12.7886639574215
 20
-21.01366000263778
 30
0.0
 10
12.7935467699215
 20
-20.99722120055445
 30
0.0
 10
12.7935467699215
 20
-20.98253207295028
 30
0.0
 10
12.7935467699215
 20
-20.96731397399195
 30
0.0
 10
12.78848763363678
 20
-20.9547271684364
 30
0.0
 10
12.77836936106733
 20
-20.94478521965167
 30
0.0
 10
12.76824430681386
 20
-20.93484327086695
 30
0.0
 10
12.75520991011247
 20
-20.92986551479056
 30
0.0
 10
12.7392729526472
 20
-20.92986551479056
 30
0.0
 10
12.72314610802914
 20
-20.92986551479056
 30
0.0
 10
12.70971159197011
 20
-20.93587408683917
 30
0.0
 10
12.69896262278608
 20
-20.94787766756834
 30
0.0
 10
12.68822043528608
 20
-20.95988124829751
 30
0.0
 10
12.68248313059858
 20
-20.97618441670028
 30
0.0
 10
12.68177105377567
 20
-20.99677360940862
 30
0.0
  0
SPLINE
  5
139
330
1F
100
AcDbEntity
  8
Layer 1
 62
   175
420
  3691172
370
    25
100
AcDbSpline
210
0.0
220
0.0
230
1.0
 70
    11
 71
     3
 72
    74
 73
    70
 74
     0
 42
0.0000000001
 43
0.0000000001
 12
1.0
 22
0.0
 32
0.0
 13
1.0
 23
0.0
 33
0.0
 40
0.0
 40
0.0
 40
0.0
 40
0.0
 40
1.0
 40
1.0
 40
1.0
 40
2.0
 40
2.0
 40
2.0
 40
3.0
 40
3.0
 40
3.0
 40
4.0
 40
4.0
 40
4.0
 40
5.0
 40
5.0
 40
5.0
 40
6.0
 40
6.0
 40
6.0
 40
7.0
 40
7.0
 40
7.0
 40
8.0
 40
8.0
 40
8.0
 40
9.0
 40
9.0
 40
9.0
 40
10.0
 40
10.0
 40
10.0
 40
11.0
 40
11.0
 40
11.0
 40
12.0
 40
12.0
 40
12.0
 40
13.0
 40
13.0
 40
13.0
 40
14.0
 40
14.0
 40
14.0
 40
15.0
 40
15.0
 40
15.0
 40
16.0
 40
16.0
 40
16.0
 40
17.0
 40
17.0
 40
17.0
 40
18.0
 40
18.0
 40
18.0
 40
19.0
 40
19.0
 40
19.0
 40
20.0
 40
20.0
 40
20.0
 40
21.0
 40
21.0
 40
21.0
 40
22.0
 40
22.0
 40
22.0
 40
23.0
 40
23.0
 40
23.0
 40
23.0
 10
12.9859295824215
 20
-20.86941358336695
 30
0.0
 10
12.9859295824215
 20
-20.86941358336695
 30
0.0
 10
13.17106277469581
 20
-20.86941358336695
 30
0.0
 10
13.17106277469581
 20
-20.86941358336695
 30
0.0
 10
13.17106277469581
 20
-20.86941358336695
 30
0.0
 10
13.17106277469581
 20
-20.93900722486001
 30
0.0
 10
13.17106277469581
 20
-20.93900722486001
 30
0.0
 10
13.17106277469581
 20
-20.93900722486001
 30
0.0
 10
13.04208870785553
 20
-20.93900722486001
 30
0.0
 10
13.04208870785553
 20
-20.93900722486001
 30
0.0
 10
13.04208870785553
 20
-20.93900722486001
 30
0.0
 10
13.0259686449215
 20
-21.01074387850584
 30
0.0
 10
13.0259686449215
 20
-21.01074387850584
 30
0.0
 10
13.03044455637983
 20
-21.00949604864473
 30
0.0
 10
13.03483230594581
 20
-21.0085601762489
 30
0.0
 10
13.03913189361942
 20
-21.00792269795028
 30
0.0
 10
13.04343148129303
 20
-21.00729878301973
 30
0.0
 10
13.04755474518192
 20
-21.00698682555445
 30
0.0
 10
13.05149490360206
 20
-21.00698682555445
 30
0.0
 10
13.08732254032081
 20
-21.00698682555445
 30
0.0
 10
13.11710091488678
 20
-21.01920742017251
 30
0.0
 10
13.140836808984
 20
-21.04366217277667
 30
0.0
 10
13.16457270308122
 20
-21.06811692538084
 30
0.0
 10
13.17644065012983
 20
-21.09942117885306
 30
0.0
 10
13.17644065012983
 20
-21.13757493319334
 30
0.0
 10
13.17644065012983
 20
-21.17609489847112
 30
0.0
 10
13.16331809153608
 20
-21.20855203822806
 30
0.0
 10
13.13707297434858
 20
-21.23497347920028
 30
0.0
 10
13.11082785716108
 20
-21.26139492017251
 30
0.0
 10
13.07889968875831
 20
-21.27460564065862
 30
0.0
 10
13.04128168745622
 20
-21.27460564065862
 30
0.0
 10
13.00760384457428
 20
-21.27460564065862
 30
0.0
 10
12.97867996219581
 20
-21.2650299028114
 30
0.0
 10
12.95449647695275
 20
-21.2458648637489
 30
0.0
 10
12.9303129917097
 20
-21.22668626131834
 30
0.0
 10
12.91445741445275
 20
-21.2004547074989
 30
0.0
 10
12.90693652686595
 20
-21.1671295121864
 30
0.0
 10
12.90693652686595
 20
-21.1671295121864
 30
0.0
 10
12.9859295824215
 20
-21.1671295121864
 30
0.0
 10
12.9859295824215
 20
-21.1671295121864
 30
0.0
 10
12.99201953467845
 20
-21.17948574048501
 30
0.0
 10
13.00004226688331
 20
-21.1888580278114
 30
0.0
 10
13.00998421566803
 20
-21.1952056840614
 30
0.0
 10
13.01991938276872
 20
-21.20156690367945
 30
0.0
 10
13.03089214752567
 20
-21.20474073180445
 30
0.0
 10
13.04289572825483
 20
-21.20474073180445
 30
0.0
 10
13.05955832591108
 20
-21.20474073180445
 30
0.0
 10
13.07370491879303
 20
-21.1987457231239
 30
0.0
 10
13.08534907026872
 20
-21.18674214239473
 30
0.0
 10
13.09699322174442
 20
-21.17475212503362
 30
0.0
 10
13.10281868832428
 20
-21.15934413892251
 30
0.0
 10
13.10281868832428
 20
-21.14053174742945
 30
0.0
 10
13.10281868832428
 20
-21.12226189065862
 30
0.0
 10
13.09739334110206
 20
-21.10726080558917
 30
0.0
 10
13.0865629917097
 20
-21.09552849222112
 30
0.0
 10
13.07571907894928
 20
-21.08379617885306
 30
0.0
 10
13.06259652035553
 20
-21.07792324048501
 30
0.0
 10
13.04719531592845
 20
-21.07792324048501
 30
0.0
 10
13.0389555698347
 20
-21.07792324048501
 30
0.0
 10
13.03084467573747
 20
-21.07998487242945
 30
0.0
 10
13.02287619700483
 20
-21.08410813631834
 30
0.0
 10
13.0149077182722
 20
-21.08823140020723
 30
0.0
 10
13.00706809153608
 20
-21.09440273267251
 30
0.0
 10
12.99936409848053
 20
-21.10263569708223
 30
0.0
 10
12.99936409848053
 20
-21.10263569708223
 30
0.0
 10
12.93810514665761
 20
-21.08893669534612
 30
0.0
 10
12.93810514665761
 20
-21.08893669534612
 30
0.0
 10
12.93810514665761
 20
-21.08893669534612
 30
0.0
 10
12.9859295824215
 20
-20.86941358336695
 30
0.0
 10
12.9859295824215
 20
-20.86941358336695
 30
0.0
  0
SPLINE
  5
13A
330
1F
100
AcDbEntity
  8
Layer 1
 62
   175
420
  3691172
370
    25
100
AcDbSpline
210
0.0
220
0.0
230
1.0
 70
    11
 71
     3
 72
    68
 73
    64
 74
     0
 42
0.0000000001
 43
0.0000000001
 12
1.0
 22
0.0
 32
0.0
 13
1.0
 23
0.0
 33
0.0
 40
0.0
 40
0.0
 40
0.0
 40
0.0
 40
1.0
 40
1.0
 40
1.0
 40
2.0
 40
2.0
 40
2.0
 40
3.0
 40
3.0
 40
3.0
 40
4.0
 40
4.0
 40
4.0
 40
5.0
 40
5.0
 40
5.0
 40
6.0
 40
6.0
 40
6.0
 40
7.0
 40
7.0
 40
7.0
 40
8.0
 40
8.0
 40
8.0
 40
9.0
 40
9.0
 40
9.0
 40
10.0
 40
10.0
 40
10.0
 40
11.0
 40
11.0
 40
11.0
 40
12.0
 40
12.0
 40
12.0
 40
13.0
 40
13.0
 40
13.0
 40
14.0
 40
14.0
 40
14.0
 40
15.0
 40
15.0
 40
15.0
 40
16.0
 40
16.0
 40
16.0
 40
17.0
 40
17.0
 40
17.0
 40
18.0
 40
18.0
 40
18.0
 40
19.0
 40
19.0
 40
19.0
 40
20.0
 40
20.0
 40
20.0
 40
21.0
 40
21.0
 40
21.0
 40
21.0
 10
13.42292095611942
 20
-20.90836757642251
 30
0.0
 10
13.42292095611942
 20
-20.90836757642251
 30
0.0
 10
13.46451980594581
 20
-20.92637972920028
 30
0.0
 10
13.46451980594581
 20
-20.92637972920028
 30
0.0
 10
13.46451980594581
 20
-20.92637972920028
 30
0.0
 10
13.43940722999095
 20
-20.98288472051973
 30
0.0
 10
13.43940722999095
 20
-20.98288472051973
 30
0.0
 10
13.45903342356733
 20
-20.99524094881834
 30
0.0
 10
13.47410910716108
 20
-21.0099029496864
 30
0.0
 10
13.48464106245622
 20
-21.02689784986001
 30
0.0
 10
13.48464106245622
 20
-21.02689784986001
 30
0.0
 10
13.42499615143192
 20
-21.06233893058917
 30
0.0
 10
13.42499615143192
 20
-21.06233893058917
 30
0.0
 10
13.42089323259511
 20
-21.05683220315862
 30
0.0
 10
13.41625456072011
 20
-21.05161030645723
 30
0.0
 10
13.41108691749095
 20
-21.04663255038084
 30
0.0
 10
13.41108691749095
 20
-21.04663255038084
 30
0.0
 10
13.34232742313331
 20
-21.20147196010306
 30
0.0
 10
13.34232742313331
 20
-21.20147196010306
 30
0.0
 10
13.35217442834164
 20
-21.20526970315862
 30
0.0
 10
13.36175016618886
 20
-21.2071685746864
 30
0.0
 10
13.371061418359
 20
-21.2071685746864
 30
0.0
 10
13.39344097565067
 20
-21.2071685746864
 30
0.0
 10
13.41321636627567
 20
-21.19839307555445
 30
0.0
 10
13.43040793528608
 20
-21.18082851392251
 30
0.0
 10
13.43040793528608
 20
-21.18082851392251
 30
0.0
 10
13.47739822391456
 20
-21.22650993753362
 30
0.0
 10
13.47739822391456
 20
-21.22650993753362
 30
0.0
 10
13.46199023780345
 20
-21.24227057121417
 30
0.0
 10
13.4453276401472
 20
-21.25382656079751
 30
0.0
 10
13.42741721262983
 20
-21.26117790628362
 30
0.0
 10
13.40950678511247
 20
-21.26851568840167
 30
0.0
 10
13.38899897261247
 20
-21.27219136114473
 30
0.0
 10
13.36589377512983
 20
-21.27219136114473
 30
0.0
 10
13.34887852990414
 20
-21.27219136114473
 30
0.0
 10
13.33185650299442
 20
-21.26968213805445
 30
0.0
 10
13.31484125776872
 20
-21.26467725524195
 30
0.0
 10
13.31484125776872
 20
-21.26467725524195
 30
0.0
 10
13.28526633372358
 20
-21.32995774569334
 30
0.0
 10
13.28526633372358
 20
-21.32995774569334
 30
0.0
 10
13.28526633372358
 20
-21.32995774569334
 30
0.0
 10
13.24414898346317
 20
-21.31223042364473
 30
0.0
 10
13.24414898346317
 20
-21.31223042364473
 30
0.0
 10
13.24414898346317
 20
-21.31223042364473
 30
0.0
 10
13.2763823276472
 20
-21.24140251565862
 30
0.0
 10
13.2763823276472
 20
-21.24140251565862
 30
0.0
 10
13.24217551341108
 20
-21.20771110940862
 30
0.0
 10
13.22507888797706
 20
-21.16668192104056
 30
0.0
 10
13.22507888797706
 20
-21.11828782381834
 30
0.0
 10
13.22507888797706
 20
-21.08819071010306
 30
0.0
 10
13.23133160065067
 20
-21.06148443840167
 30
0.0
 10
13.24385058936595
 20
-21.03818257208223
 30
0.0
 10
13.2563627963972
 20
-21.01489426913084
 30
0.0
 10
13.27379850603261
 20
-20.99682786288084
 30
0.0
 10
13.29615093658817
 20
-20.9840240434364
 30
0.0
 10
13.31850336714372
 20
-20.9712066606239
 30
0.0
 10
13.34353456289025
 20
-20.96480475090167
 30
0.0
 10
13.37124452382775
 20
-20.96480475090167
 30
0.0
 10
13.37893495351525
 20
-20.96480475090167
 30
0.0
 10
13.38751378381039
 20
-20.96552360940862
 30
0.0
 10
13.39699457808122
 20
-20.96694776305445
 30
0.0
 10
13.39699457808122
 20
-20.96694776305445
 30
0.0
 10
13.42292095611942
 20
-20.90836757642251
 30
0.0
 10
13.42292095611942
 20
-20.90836757642251
 30
0.0
  0
SPLINE
  5
13B
330
1F
100
AcDbEntity
  8
Layer 1
 62
   175
420
  3691172
370
    25
100
AcDbSpline
210
0.0
220
0.0
230
1.0
 70
    11
 71
     3
 72
    17
 73
    13
 74
     0
 42
0.0000000001
 43
0.0000000001
 12
1.0
 22
0.0
 32
0.0
 13
1.0
 23
0.0
 33
0.0
 40
0.0
 40
0.0
 40
0.0
 40
0.0
 40
1.0
 40
1.0
 40
1.0
 40
2.0
 40
2.0
 40
2.0
 40
3.0
 40
3.0
 40
3.0
 40
4.0
 40
4.0
 40
4.0
 40
4.0
 10
13.36868104726525
 20
-21.0308990434364
 30
0.0
 10
13.3466948276472
 20
-21.03216043666556
 30
0.0
 10
13.32940153337636
 20
-21.04039340107528
 30
0.0
 10
13.31679438276872
 20
-21.05561150003362
 30
0.0
 10
13.30419401384511
 20
-21.07082959899195
 30
0.0
 10
13.29789382938331
 20
-21.09213765020723
 30
0.0
 10
13.29789382938331
 20
-21.1195220903114
 30
0.0
 10
13.29789382938331
 20
-21.13707308857528
 30
0.0
 10
13.3011626010847
 20
-21.1534576371864
 30
0.0
 10
13.30769336280345
 20
-21.16867573614473
 30
0.0
 10
13.30769336280345
 20
-21.16867573614473
 30
0.0
 10
13.36868104726525
 20
-21.0308990434364
 30
0.0
 10
13.36868104726525
 20
-21.0308990434364
 30
0.0
  0
POLYLINE
  5
13C
330
1F
100
AcDbEntity
  8
Layer 1
 62
   175
420
  3691172
370
    25
100
AcDb2dPolyline
 66
     1
 10
0.0
 20
0.0
 30
0.0
  0
VERTEX
  5
13D
330
13C
100
AcDbEntity
  8
Layer 1
 62
   175
420
  3691172
370
    25
100
AcDbVertex
100
AcDb2dVertex
 10
11.70514489151262
 20
-23.73147175401138
 30
0.0
  0
VERTEX
  5
13E
330
13C
100
AcDbEntity
  8
Layer 1
 62
   175
420
  3691172
370
    25
100
AcDbVertex
100
AcDb2dVertex
 10
11.70514489151262
 20
-22.58969963921443
 30
0.0
  0
VERTEX
  5
13F
330
13C
100
AcDbEntity
  8
Layer 1
 62
   175
420
  3691172
370
    25
100
AcDbVertex
100
AcDb2dVertex
 10
14.39115285505764
 20
-22.58969963921443
 30
0.0
  0
VERTEX
  5
140
330
13C
100
AcDbEntity
  8
Layer 1
 62
   175
420
  3691172
370
    25
100
AcDbVertex
100
AcDb2dVertex
 10
14.39115285505764
 20
-23.73147175401138
 30
0.0
  0
VERTEX
  5
141
330
13C
100
AcDbEntity
  8
Layer 1
 62
   175
420
  3691172
370
    25
100
AcDbVertex
100
AcDb2dVertex
 10
11.70514489151262
 20
-23.73147175401138
 30
0.0
  0
SEQEND
  5
142
330
13C
100
AcDbEntity
  8
Layer 1
 62
   175
420
  3691172
370
    25
  0
SPLINE
  5
143
330
1F
100
AcDbEntity
  8
Layer 1
 62
   175
420
  3691172
370
    25
100
AcDbSpline
210
0.0
220
0.0
230
1.0
 70
    11
 71
     3
 72
    26
 73
    22
 74
     0
 42
0.0000000001
 43
0.0000000001
 12
1.0
 22
0.0
 32
0.0
 13
1.0
 23
0.0
 33
0.0
 40
0.0
 40
0.0
 40
0.0
 40
0.0
 40
1.0
 40
1.0
 40
1.0
 40
2.0
 40
2.0
 40
2.0
 40
3.0
 40
3.0
 40
3.0
 40
4.0
 40
4.0
 40
4.0
 40
5.0
 40
5.0
 40
5.0
 40
6.0
 40
6.0
 40
6.0
 40
7.0
 40
7.0
 40
7.0
 40
7.0
 10
12.68002655121679
 20
-23.16058264108902
 30
0.0
 10
12.68002655121679
 20
-22.97617538297542
 30
0.0
 10
12.75035870621205
 20
-22.81501614695041
 30
0.0
 10
12.85551715496247
 20
-22.7248827999082
 30
0.0
 10
12.85551715496247
 20
-22.7248827999082
 30
0.0
 10
11.98600953249833
 20
-22.7248827999082
 30
0.0
 10
11.98600953249833
 20
-22.7248827999082
 30
0.0
 10
11.88703904869388
 20
-22.7248827999082
 30
0.0
 10
11.80606375823747
 20
-22.81580921712083
 30
0.0
 10
11.80606375823747
 20
-22.92694509105973
 30
0.0
 10
11.80606375823747
 20
-22.92694509105973
 30
0.0
 10
11.80606375823747
 20
-23.39422480199154
 30
0.0
 10
11.80606375823747
 20
-23.39422480199154
 30
0.0
 10
11.80606375823747
 20
-23.50536067593028
 30
0.0
 10
11.88703904869388
 20
-23.59629170401611
 30
0.0
 10
11.98600953249833
 20
-23.59629170401611
 30
0.0
 10
11.98600953249833
 20
-23.59629170401611
 30
0.0
 10
12.85551715496247
 20
-23.59629170401611
 30
0.0
 10
12.85551715496247
 20
-23.59629170401611
 30
0.0
 10
12.75036075928582
 20
-23.50615374610084
 30
0.0
 10
12.68002655121679
 20
-23.34499912094874
 30
0.0
 10
12.68002655121679
 20
-23.16058264108902
 30
0.0
  0
SPLINE
  5
144
330
1F
100
AcDbEntity
  8
Layer 1
 62
   175
420
  3691172
370
    25
100
AcDbSpline
210
0.0
220
0.0
230
1.0
 70
    11
 71
     3
 72
    26
 73
    22
 74
     0
 42
0.0000000001
 43
0.0000000001
 12
1.0
 22
0.0
 32
0.0
 13
1.0
 23
0.0
 33
0.0
 40
0.0
 40
0.0
 40
0.0
 40
0.0
 40
1.0
 40
1.0
 40
1.0
 40
2.0
 40
2.0
 40
2.0
 40
3.0
 40
3.0
 40
3.0
 40
4.0
 40
4.0
 40
4.0
 40
5.0
 40
5.0
 40
5.0
 40
6.0
 40
6.0
 40
6.0
 40
7.0
 40
7.0
 40
7.0
 40
7.0
 10
14.11028616099778
 20
-22.7248827999082
 30
0.0
 10
14.11028616099778
 20
-22.7248827999082
 30
0.0
 10
13.24078059160762
 20
-22.7248827999082
 30
0.0
 10
13.24078059160762
 20
-22.7248827999082
 30
0.0
 10
13.34593698728428
 20
-22.81501614695041
 30
0.0
 10
13.41626914227917
 20
-22.97617538297542
 30
0.0
 10
13.41626914227917
 20
-23.16058264108902
 30
0.0
 10
13.41626914227917
 20
-23.34499912094874
 30
0.0
 10
13.34593698728428
 20
-23.50615374610084
 30
0.0
 10
13.24078059160762
 20
-23.59629170401611
 30
0.0
 10
13.24078059160762
 20
-23.59629170401611
 30
0.0
 10
14.11028616099778
 20
-23.59629170401611
 30
0.0
 10
14.11028616099778
 20
-23.59629170401611
 30
0.0
 10
14.20925664480249
 20
-23.59629170401611
 30
0.0
 10
14.29023398833278
 20
-23.50536067593028
 30
0.0
 10
14.29023398833278
 20
-23.39422480199154
 30
0.0
 10
14.29023398833278
 20
-23.39422480199154
 30
0.0
 10
14.29023398833278
 20
-22.92694509105973
 30
0.0
 10
14.29023398833278
 20
-22.92694509105973
 30
0.0
 10
14.29023398833278
 20
-22.81580921712083
 30
0.0
 10
14.20925664480249
 20
-22.7248827999082
 30
0.0
 10
14.11028616099778
 20
-22.7248827999082
 30
0.0
  0
SPLINE
  5
145
330
1F
100
AcDbEntity
  8
Layer 1
 62
   175
420
  3691172
370
    25
100
AcDbSpline
210
0.0
220
0.0
230
1.0
 70
    11
 71
     3
 72
   104
 73
   100
 74
     0
 42
0.0000000001
 43
0.0000000001
 12
1.0
 22
0.0
 32
0.0
 13
1.0
 23
0.0
 33
0.0
 40
0.0
 40
0.0
 40
0.0
 40
0.0
 40
1.0
 40
1.0
 40
1.0
 40
2.0
 40
2.0
 40
2.0
 40
3.0
 40
3.0
 40
3.0
 40
4.0
 40
4.0
 40
4.0
 40
5.0
 40
5.0
 40
5.0
 40
6.0
 40
6.0
 40
6.0
 40
7.0
 40
7.0
 40
7.0
 40
8.0
 40
8.0
 40
8.0
 40
9.0
 40
9.0
 40
9.0
 40
10.0
 40
10.0
 40
10.0
 40
11.0
 40
11.0
 40
11.0
 40
12.0
 40
12.0
 40
12.0
 40
13.0
 40
13.0
 40
13.0
 40
14.0
 40
14.0
 40
14.0
 40
15.0
 40
15.0
 40
15.0
 40
16.0
 40
16.0
 40
16.0
 40
17.0
 40
17.0
 40
17.0
 40
18.0
 40
18.0
 40
18.0
 40
19.0
 40
19.0
 40
19.0
 40
20.0
 40
20.0
 40
20.0
 40
21.0
 40
21.0
 40
21.0
 40
22.0
 40
22.0
 40
22.0
 40
23.0
 40
23.0
 40
23.0
 40
24.0
 40
24.0
 40
24.0
 40
25.0
 40
25.0
 40
25.0
 40
26.0
 40
26.0
 40
26.0
 40
27.0
 40
27.0
 40
27.0
 40
28.0
 40
28.0
 40
28.0
 40
29.0
 40
29.0
 40
29.0
 40
30.0
 40
30.0
 40
30.0
 40
31.0
 40
31.0
 40
31.0
 40
32.0
 40
32.0
 40
32.0
 40
33.0
 40
33.0
 40
33.0
 40
33.0
 10
13.19921422784388
 20
-22.95063169547959
 30
0.0
 10
13.19921422784388
 20
-22.95063169547959
 30
0.0
 10
13.13657083486692
 20
-23.01163262928041
 30
0.0
 10
13.13657083486692
 20
-23.01163262928041
 30
0.0
 10
13.10802489438609
 20
-22.98219976084445
 30
0.0
 10
13.07979102114872
 20
-22.96748332662653
 30
0.0
 10
13.05186921515485
 20
-22.96748332662653
 30
0.0
 10
13.03542819880194
 20
-22.96748332662653
 30
0.0
 10
13.02205858110831
 20
-22.97188511721861
 30
0.0
 10
13.01179321125763
 20
-22.98062300003542
 30
0.0
 10
13.00151141681512
 20
-22.98939373203583
 30
0.0
 10
12.99637051959386
 20
-22.99951128056071
 30
0.0
 10
12.99637051959386
 20
-23.01097564561001
 30
0.0
 10
12.99637051959386
 20
-23.0207318531161
 30
0.0
 10
13.00092013151177
 20
-23.03035666388819
 30
0.0
 10
13.01000293075567
 20
-23.0398500779261
 30
0.0
 10
13.01887221030665
 20
-23.04960628543222
 30
0.0
 10
13.03684071369331
 20
-23.05998662742528
 30
0.0
 10
13.06387559173221
 20
-23.07102395308874
 30
0.0
 10
13.11191752263345
 20
-23.0909305583032
 30
0.0
 10
13.14479955533928
 20
-23.10791358618417
 30
0.0
 10
13.16253811444123
 20
-23.12197303673166
 30
0.0
 10
13.18027667354333
 20
-23.13603248727931
 30
0.0
 10
13.19390908470498
 20
-23.15291696760972
 30
0.0
 10
13.20343534792651
 20
-23.17259362853944
 30
0.0
 10
13.2129451865561
 20
-23.19230313865291
 30
0.0
 10
13.21770831816692
 20
-23.21434494079626
 30
0.0
 10
13.21770831816692
 20
-23.23881758252042
 30
0.0
 10
13.21770831816692
 20
-23.26325737506098
 30
0.0
 10
13.21263311931276
 20
-23.2858576133243
 30
0.0
 10
13.20246629701261
 20
-23.30665114649388
 30
0.0
 10
13.19228305012067
 20
-23.32741183047986
 30
0.0
 10
13.17919265048706
 20
-23.34383642224096
 30
0.0
 10
13.16319509811165
 20
-23.35595777096069
 30
0.0
 10
13.14718112114456
 20
-23.36807911968041
 30
0.0
 10
13.12413741890374
 20
-23.37727689106666
 30
0.0
 10
13.09406399138915
 20
-23.38355108511945
 30
0.0
 10
13.09406399138915
 20
-23.38355108511945
 30
0.0
 10
13.09406399138915
 20
-23.4702072312511
 30
0.0
 10
13.09406399138915
 20
-23.4702072312511
 30
0.0
 10
13.09406399138915
 20
-23.4702072312511
 30
0.0
 10
13.0330466329965
 20
-23.4702072312511
 30
0.0
 10
13.0330466329965
 20
-23.4702072312511
 30
0.0
 10
13.0330466329965
 20
-23.4702072312511
 30
0.0
 10
13.0330466329965
 20
-23.38548918694722
 30
0.0
 10
13.0330466329965
 20
-23.38548918694722
 30
0.0
 10
13.00469778761678
 20
-23.38226996696208
 30
0.0
 10
12.98058648691151
 20
-23.37510884495416
 30
0.0
 10
12.96067988169693
 20
-23.36407151929069
 30
0.0
 10
12.93341505937345
 20
-23.34892804568694
 30
0.0
 10
12.90810476346956
 20
-23.32882434537138
 30
0.0
 10
12.8847325693936
 20
-23.30372756916043
 30
0.0
 10
12.8847325693936
 20
-23.30372756916043
 30
0.0
 10
12.94639048686483
 20
-23.24042719251293
 30
0.0
 10
12.94639048686483
 20
-23.24042719251293
 30
0.0
 10
12.98599017760082
 20
-23.28260554415556
 30
0.0
 10
13.02429232558791
 20
-23.30372756916043
 30
0.0
 10
13.06128050623387
 20
-23.30372756916043
 30
0.0
 10
13.08010308839221
 20
-23.30372756916043
 30
0.0
 10
13.09628131127693
 20
-23.29715773245597
 30
0.0
 10
13.10979875029622
 20
-23.28408375741403
 30
0.0
 10
13.12331618931567
 20
-23.2709769331886
 30
0.0
 10
13.13008312112124
 20
-23.25557066611666
 30
0.0
 10
13.13008312112124
 20
-23.23783210701473
 30
0.0
 10
13.13008312112124
 20
-23.22291857769556
 30
0.0
 10
13.12576345348803
 20
-23.20981175347027
 30
0.0
 10
13.11710769362998
 20
-23.19857733270555
 30
0.0
 10
13.108238414079
 20
-23.18731006275751
 30
0.0
 10
13.09114041405567
 20
-23.1758456977082
 30
0.0
 10
13.06583011815178
 20
-23.16415138837429
 30
0.0
 10
13.01433902298054
 20
-23.14036857950416
 30
0.0
 10
12.97950246385528
 20
-23.1214802989789
 30
0.0
 10
12.96132044077568
 20
-23.10751939598195
 30
0.0
 10
12.94315484228789
 20
-23.09359134216846
 30
0.0
 10
12.92957170490136
 20
-23.07788943244486
 30
0.0
 10
12.92060387779985
 20
-23.06047936517805
 30
0.0
 10
12.91161962610651
 20
-23.04306929791124
 30
0.0
 10
12.90713571255568
 20
-23.02450950922124
 30
0.0
 10
12.90713571255568
 20
-23.00479999910777
 30
0.0
 10
12.90713571255568
 20
-22.97214791068667
 30
0.0
 10
12.91902711699082
 20
-22.94419325550931
 30
0.0
 10
12.94282635045263
 20
-22.92093603357555
 30
0.0
 10
12.96662558391457
 20
-22.8976788116418
 30
0.0
 10
12.99669901142915
 20
-22.88516327271971
 30
0.0
 10
13.0330466329965
 20
-22.88342226599305
 30
0.0
 10
13.0330466329965
 20
-22.88342226599305
 30
0.0
 10
13.0330466329965
 20
-22.85096727267306
 30
0.0
 10
13.0330466329965
 20
-22.85096727267306
 30
0.0
 10
13.0330466329965
 20
-22.85096727267306
 30
0.0
 10
13.09406399138915
 20
-22.85096727267306
 30
0.0
 10
13.09406399138915
 20
-22.85096727267306
 30
0.0
 10
13.09406399138915
 20
-22.85096727267306
 30
0.0
 10
13.09406399138915
 20
-22.8876598106675
 30
0.0
 10
13.09406399138915
 20
-22.8876598106675
 30
0.0
 10
13.11505461965983
 20
-22.8926200373793
 30
0.0
 10
13.13284245253706
 20
-22.89935412000139
 30
0.0
 10
13.14744391461277
 20
-22.90776351098306
 30
0.0
 10
13.16206180128011
 20
-22.91620575114833
 30
0.0
 10
13.17930762262942
 20
-22.93049514598056
 30
0.0
 10
13.19921422784388
 20
-22.95063169547959
 30
0.0
  0
SPLINE
  5
146
330
1F
100
AcDbEntity
  8
Layer 1
 62
   175
420
  3691172
370
    25
100
AcDbSpline
210
0.0
220
0.0
230
1.0
 70
    11
 71
     3
 72
    17
 73
    13
 74
     0
 42
0.0000000001
 43
0.0000000001
 12
1.0
 22
0.0
 32
0.0
 13
1.0
 23
0.0
 33
0.0
 40
0.0
 40
0.0
 40
0.0
 40
0.0
 40
1.0
 40
1.0
 40
1.0
 40
2.0
 40
2.0
 40
2.0
 40
3.0
 40
3.0
 40
3.0
 40
4.0
 40
4.0
 40
4.0
 40
4.0
 10
12.39475369953399
 20
-23.16058725196209
 30
0.0
 10
12.39475369953399
 20
-23.07698844086472
 30
0.0
 10
12.32698347296082
 20
-23.00921821429152
 30
0.0
 10
12.24338466186346
 20
-23.00921821429152
 30
0.0
 10
12.15978585076608
 20
-23.00921821429152
 30
0.0
 10
12.09201562419291
 20
-23.07698844086472
 30
0.0
 10
12.09201562419291
 20
-23.16058725196209
 30
0.0
 10
12.09201562419291
 20
-23.24418606305943
 30
0.0
 10
12.15978585076608
 20
-23.31195628963264
 30
0.0
 10
12.24338466186346
 20
-23.31195628963264
 30
0.0
 10
12.32698347296082
 20
-23.31195628963264
 30
0.0
 10
12.39475369953399
 20
-23.24418606305943
 30
0.0
 10
12.39475369953399
 20
-23.16058725196209
 30
0.0
  0
SPLINE
  5
147
330
1F
100
AcDbEntity
  8
Layer 1
 62
   175
420
  3691172
370
    25
100
AcDbSpline
210
0.0
220
0.0
230
1.0
 70
    11
 71
     3
 72
    17
 73
    13
 74
     0
 42
0.0000000001
 43
0.0000000001
 12
1.0
 22
0.0
 32
0.0
 13
1.0
 23
0.0
 33
0.0
 40
0.0
 40
0.0
 40
0.0
 40
0.0
 40
1.0
 40
1.0
 40
1.0
 40
2.0
 40
2.0
 40
2.0
 40
3.0
 40
3.0
 40
3.0
 40
4.0
 40
4.0
 40
4.0
 40
4.0
 10
13.70154407118775
 20
-23.16058725194847
 30
0.0
 10
13.70154407118012
 20
-23.24418606304582
 30
0.0
 10
13.76931429774735
 20
-23.31195628962513
 30
0.0
 10
13.85291310884456
 20
-23.31195628963264
 30
0.0
 10
13.93651191994195
 20
-23.31195628964014
 30
0.0
 10
14.00428214652125
 20
-23.24418606307305
 30
0.0
 10
14.00428214652889
 20
-23.16058725197568
 30
0.0
 10
14.00428214653638
 20
-23.07698844087834
 30
0.0
 10
13.93651191996917
 20
-23.00921821429903
 30
0.0
 10
13.85291310887179
 20
-23.00921821429152
 30
0.0
 10
13.76931429777442
 20
-23.00921821428402
 30
0.0
 10
13.70154407119526
 20
-23.07698844085111
 30
0.0
 10
13.70154407118775
 20
-23.16058725194847
 30
0.0
  0
SPLINE
  5
148
330
1F
100
AcDbEntity
  8
Layer 1
 62
   175
420
  3691172
370
    25
100
AcDbSpline
210
0.0
220
0.0
230
1.0
 70
    11
 71
     3
 72
    17
 73
    13
 74
     0
 42
0.0000000001
 43
0.0000000001
 12
1.0
 22
0.0
 32
0.0
 13
1.0
 23
0.0
 33
0.0
 40
0.0
 40
0.0
 40
0.0
 40
0.0
 40
1.0
 40
1.0
 40
1.0
 40
2.0
 40
2.0
 40
2.0
 40
3.0
 40
3.0
 40
3.0
 40
4.0
 40
4.0
 40
4.0
 40
4.0
 10
13.36001158061304
 20
-23.16058725196222
 30
0.0
 10
13.36001158061304
 20
-23.40122017625152
 30
0.0
 10
13.22038543097748
 20
-23.59629170401611
 30
0.0
 10
13.04814784674818
 20
-23.59629170401611
 30
0.0
 10
12.87591026251888
 20
-23.59629170401611
 30
0.0
 10
12.73628411288332
 20
-23.40122017625152
 30
0.0
 10
12.73628411288332
 20
-23.16058725196222
 30
0.0
 10
12.73628411288332
 20
-22.91995432767279
 30
0.0
 10
12.87591026251888
 20
-22.7248827999082
 30
0.0
 10
13.04814784674818
 20
-22.7248827999082
 30
0.0
 10
13.22038543097748
 20
-22.7248827999082
 30
0.0
 10
13.36001158061304
 20
-22.91995432767279
 30
0.0
 10
13.36001158061304
 20
-23.16058725196222
 30
0.0
  0
POLYLINE
  5
149
330
1F
100
AcDbEntity
  8
Layer 1
 62
   250
420
  2301728
370
    35
100
AcDb2dPolyline
 66
     1
 10
0.0
 20
0.0
 30
0.0
  0
VERTEX
  5
14A
330
149
100
AcDbEntity
  8
Layer 1
 62
   250
420
  2301728
370
    35
100
AcDbVertex
100
AcDb2dVertex
 10
14.76927672492126
 20
-14.48821258544917
 30
0.0
  0
VERTEX
  5
14B
330
149
100
AcDbEntity
  8
Layer 1
 62
   250
420
  2301728
370
    35
100
AcDbVertex
100
AcDb2dVertex
 10
14.76927672492126
 20
-14.09451124403208
 30
0.0
  0
VERTEX
  5
14C
330
149
100
AcDbEntity
  8
Layer 1
 62
   250
420
  2301728
370
    35
100
AcDbVertex
100
AcDb2dVertex
 10
14.61770269605847
 20
-14.09451124403208
 30
0.0
  0
VERTEX
  5
14D
330
149
100
AcDbEntity
  8
Layer 1
 62
   250
420
  2301728
370
    35
100
AcDbVertex
100
AcDb2dVertex
 10
14.61770269605847
 20
-13.70081075032552
 30
0.0
  0
VERTEX
  5
14E
330
149
100
AcDbEntity
  8
Layer 1
 62
   250
420
  2301728
370
    35
100
AcDbVertex
100
AcDb2dVertex
 10
11.47859679328068
 20
-13.70081075032552
 30
0.0
  0
VERTEX
  5
14F
330
149
100
AcDbEntity
  8
Layer 1
 62
   250
420
  2301728
370
    35
100
AcDbVertex
100
AcDb2dVertex
 10
11.47859679328068
 20
-14.09451209174263
 30
0.0
  0
VERTEX
  5
150
330
149
100
AcDbEntity
  8
Layer 1
 62
   250
420
  2301728
370
    35
100
AcDbVertex
100
AcDb2dVertex
 10
11.32702106899683
 20
-14.09451209174263
 30
0.0
  0
VERTEX
  5
151
330
149
100
AcDbEntity
  8
Layer 1
 62
   250
420
  2301728
370
    35
100
AcDbVertex
100
AcDb2dVertex
 10
11.32702106899683
 20
-14.48821258544917
 30
0.0
  0
VERTEX
  5
152
330
149
100
AcDbEntity
  8
Layer 1
 62
   250
420
  2301728
370
    35
100
AcDbVertex
100
AcDb2dVertex
 10
11.47859679328068
 20
-14.48821258544917
 30
0.0
  0
VERTEX
  5
153
330
149
100
AcDbEntity
  8
Layer 1
 62
   250
420
  2301728
370
    35
100
AcDbVertex
100
AcDb2dVertex
 10
11.47859679328068
 20
-14.88191307915583
 30
0.0
  0
VERTEX
  5
154
330
149
100
AcDbEntity
  8
Layer 1
 62
   250
420
  2301728
370
    35
100
AcDbVertex
100
AcDb2dVertex
 10
11.32702106899683
 20
-14.88191307915583
 30
0.0
  0
VERTEX
  5
155
330
149
100
AcDbEntity
  8
Layer 1
 62
   250
420
  2301728
370
    35
100
AcDbVertex
100
AcDb2dVertex
 10
11.32702106899683
 20
-15.27561357286236
 30
0.0
  0
VERTEX
  5
156
330
149
100
AcDbEntity
  8
Layer 1
 62
   250
420
  2301728
370
    35
100
AcDbVertex
100
AcDb2dVertex
 10
11.47859679328068
 20
-15.27561357286236
 30
0.0
  0
VERTEX
  5
157
330
149
100
AcDbEntity
  8
Layer 1
 62
   250
420
  2301728
370
    35
100
AcDbVertex
100
AcDb2dVertex
 10
11.47859679328068
 20
-15.66931491427959
 30
0.0
  0
VERTEX
  5
158
330
149
100
AcDbEntity
  8
Layer 1
 62
   250
420
  2301728
370
    35
100
AcDbVertex
100
AcDb2dVertex
 10
11.47859679328068
 20
-15.66931491427959
 30
0.0
  0
VERTEX
  5
159
330
149
100
AcDbEntity
  8
Layer 1
 62
   250
420
  2301728
370
    35
100
AcDbVertex
100
AcDb2dVertex
 10
11.47859679328068
 20
-15.82088979085291
 30
0.0
  0
VERTEX
  5
15A
330
149
100
AcDbEntity
  8
Layer 1
 62
   250
420
  2301728
370
    35
100
AcDbVertex
100
AcDb2dVertex
 10
12.01547220018172
 20
-15.82088979085291
 30
0.0
  0
VERTEX
  5
15B
330
149
100
AcDbEntity
  8
Layer 1
 62
   250
420
  2301728
370
    35
100
AcDbVertex
100
AcDb2dVertex
 10
12.01547220018172
 20
-15.66931491427959
 30
0.0
  0
VERTEX
  5
15C
330
149
100
AcDbEntity
  8
Layer 1
 62
   250
420
  2301728
370
    35
100
AcDbVertex
100
AcDb2dVertex
 10
12.70392333136662
 20
-15.66931491427959
 30
0.0
  0
VERTEX
  5
15D
330
149
100
AcDbEntity
  8
Layer 1
 62
   250
420
  2301728
370
    35
100
AcDbVertex
100
AcDb2dVertex
 10
12.70392333136662
 20
-15.82088979085291
 30
0.0
  0
VERTEX
  5
15E
330
149
100
AcDbEntity
  8
Layer 1
 62
   250
420
  2301728
370
    35
100
AcDbVertex
100
AcDb2dVertex
 10
13.39237446255152
 20
-15.82088979085291
 30
0.0
  0
VERTEX
  5
15F
330
149
100
AcDbEntity
  8
Layer 1
 62
   250
420
  2301728
370
    35
100
AcDbVertex
100
AcDb2dVertex
 10
13.39237446255152
 20
-15.66931491427959
 30
0.0
  0
VERTEX
  5
160
330
149
100
AcDbEntity
  8
Layer 1
 62
   250
420
  2301728
370
    35
100
AcDbVertex
100
AcDb2dVertex
 10
14.08082728915737
 20
-15.66931491427959
 30
0.0
  0
VERTEX
  5
161
330
149
100
AcDbEntity
  8
Layer 1
 62
   250
420
  2301728
370
    35
100
AcDbVertex
100
AcDb2dVertex
 10
14.08082728915737
 20
-15.82088979085291
 30
0.0
  0
VERTEX
  5
162
330
149
100
AcDbEntity
  8
Layer 1
 62
   250
420
  2301728
370
    35
100
AcDbVertex
100
AcDb2dVertex
 10
14.61770269605847
 20
-15.82088979085291
 30
0.0
  0
VERTEX
  5
163
330
149
100
AcDbEntity
  8
Layer 1
 62
   250
420
  2301728
370
    35
100
AcDbVertex
100
AcDb2dVertex
 10
14.61770269605847
 20
-15.66931491427959
 30
0.0
  0
VERTEX
  5
164
330
149
100
AcDbEntity
  8
Layer 1
 62
   250
420
  2301728
370
    35
100
AcDbVertex
100
AcDb2dVertex
 10
14.61770269605847
 20
-15.27561357286236
 30
0.0
  0
VERTEX
  5
165
330
149
100
AcDbEntity
  8
Layer 1
 62
   250
420
  2301728
370
    35
100
AcDbVertex
100
AcDb2dVertex
 10
14.76927672492126
 20
-15.27561357286236
 30
0.0
  0
VERTEX
  5
166
330
149
100
AcDbEntity
  8
Layer 1
 62
   250
420
  2301728
370
    35
100
AcDbVertex
100
AcDb2dVertex
 10
14.76927672492126
 20
-14.88191307915583
 30
0.0
  0
VERTEX
  5
167
330
149
100
AcDbEntity
  8
Layer 1
 62
   250
420
  2301728
370
    35
100
AcDbVertex
100
AcDb2dVertex
 10
14.61770269605847
 20
-14.88191307915583
 30
0.0
  0
VERTEX
  5
168
330
149
100
AcDbEntity
  8
Layer 1
 62
   250
420
  2301728
370
    35
100
AcDbVertex
100
AcDb2dVertex
 10
14.61770269605847
 20
-14.48821258544917
 30
0.0
  0
VERTEX
  5
169
330
149
100
AcDbEntity
  8
Layer 1
 62
   250
420
  2301728
370
    35
100
AcDbVertex
100
AcDb2dVertex
 10
14.76927672492126
 20
-14.48821258544917
 30
0.0
  0
SEQEND
  5
16A
330
149
100
AcDbEntity
  8
Layer 1
 62
   250
420
  2301728
370
    35
  0
POLYLINE
  5
16B
330
1F
100
AcDbEntity
  8
Layer 1
 62
   250
420
  2301728
370
    35
100
AcDb2dPolyline
 66
     1
 10
0.0
 20
0.0
 30
0.0
  0
VERTEX
  5
16C
330
16B
100
AcDbEntity
  8
Layer 1
 62
   250
420
  2301728
370
    35
100
AcDbVertex
100
AcDb2dVertex
 10
11.3015982309977
 20
-14.09451209174263
 30
0.0
  0
VERTEX
  5
16D
330
16B
100
AcDbEntity
  8
Layer 1
 62
   250
420
  2301728
370
    35
100
AcDbVertex
100
AcDb2dVertex
 10
11.3015982309977
 20
-13.70081075032552
 30
0.0
  0
VERTEX
  5
16E
330
16B
100
AcDbEntity
  8
Layer 1
 62
   250
420
  2301728
370
    35
100
AcDbVertex
100
AcDb2dVertex
 10
7.667741351657418
 20
-13.70081075032552
 30
0.0
  0
VERTEX
  5
16F
330
16B
100
AcDbEntity
  8
Layer 1
 62
   250
420
  2301728
370
    35
100
AcDbVertex
100
AcDb2dVertex
 10
7.667741351657418
 20
-14.09451124403208
 30
0.0
  0
VERTEX
  5
170
330
16B
100
AcDbEntity
  8
Layer 1
 62
   250
420
  2301728
370
    35
100
AcDbVertex
100
AcDb2dVertex
 10
7.819315380520266
 20
-14.09451124403208
 30
0.0
  0
VERTEX
  5
171
330
16B
100
AcDbEntity
  8
Layer 1
 62
   250
420
  2301728
370
    35
100
AcDbVertex
100
AcDb2dVertex
 10
7.819315380520266
 20
-14.48821258544917
 30
0.0
  0
VERTEX
  5
172
330
16B
100
AcDbEntity
  8
Layer 1
 62
   250
420
  2301728
370
    35
100
AcDbVertex
100
AcDb2dVertex
 10
7.667741351657418
 20
-14.48821258544917
 30
0.0
  0
VERTEX
  5
173
330
16B
100
AcDbEntity
  8
Layer 1
 62
   250
420
  2301728
370
    35
100
AcDbVertex
100
AcDb2dVertex
 10
7.667741351657418
 20
-14.88191307915583
 30
0.0
  0
VERTEX
  5
174
330
16B
100
AcDbEntity
  8
Layer 1
 62
   250
420
  2301728
370
    35
100
AcDbVertex
100
AcDb2dVertex
 10
7.819315380520266
 20
-14.88191307915583
 30
0.0
  0
VERTEX
  5
175
330
16B
100
AcDbEntity
  8
Layer 1
 62
   250
420
  2301728
370
    35
100
AcDbVertex
100
AcDb2dVertex
 10
7.819315380520266
 20
-15.27561357286236
 30
0.0
  0
VERTEX
  5
176
330
16B
100
AcDbEntity
  8
Layer 1
 62
   250
420
  2301728
370
    35
100
AcDbVertex
100
AcDb2dVertex
 10
7.667741351657418
 20
-15.27561357286236
 30
0.0
  0
VERTEX
  5
177
330
16B
100
AcDbEntity
  8
Layer 1
 62
   250
420
  2301728
370
    35
100
AcDbVertex
100
AcDb2dVertex
 10
7.667741351657418
 20
-15.66931491427959
 30
0.0
  0
VERTEX
  5
178
330
16B
100
AcDbEntity
  8
Layer 1
 62
   250
420
  2301728
370
    35
100
AcDbVertex
100
AcDb2dVertex
 10
7.667741351657418
 20
-15.66931491427959
 30
0.0
  0
VERTEX
  5
179
330
16B
100
AcDbEntity
  8
Layer 1
 62
   250
420
  2301728
370
    35
100
AcDbVertex
100
AcDb2dVertex
 10
7.667741351657418
 20
-15.82088979085291
 30
0.0
  0
VERTEX
  5
17A
330
16B
100
AcDbEntity
  8
Layer 1
 62
   250
420
  2301728
370
    35
100
AcDbVertex
100
AcDb2dVertex
 10
8.394510693020266
 20
-15.82088979085291
 30
0.0
  0
VERTEX
  5
17B
330
16B
100
AcDbEntity
  8
Layer 1
 62
   250
420
  2301728
370
    35
100
AcDbVertex
100
AcDb2dVertex
 10
8.394510693020266
 20
-15.66931491427959
 30
0.0
  0
VERTEX
  5
17C
330
16B
100
AcDbEntity
  8
Layer 1
 62
   250
420
  2301728
370
    35
100
AcDbVertex
100
AcDb2dVertex
 10
9.121283425225126
 20
-15.66931491427959
 30
0.0
  0
VERTEX
  5
17D
330
16B
100
AcDbEntity
  8
Layer 1
 62
   250
420
  2301728
370
    35
100
AcDbVertex
100
AcDb2dVertex
 10
9.121283425225126
 20
-15.82088979085291
 30
0.0
  0
VERTEX
  5
17E
330
16B
100
AcDbEntity
  8
Layer 1
 62
   250
420
  2301728
370
    35
100
AcDbVertex
100
AcDb2dVertex
 10
9.848056157429987
 20
-15.82088979085291
 30
0.0
  0
VERTEX
  5
17F
330
16B
100
AcDbEntity
  8
Layer 1
 62
   250
420
  2301728
370
    35
100
AcDbVertex
100
AcDb2dVertex
 10
9.848056157429987
 20
-15.66931491427959
 30
0.0
  0
VERTEX
  5
180
330
16B
100
AcDbEntity
  8
Layer 1
 62
   250
420
  2301728
370
    35
100
AcDbVertex
100
AcDb2dVertex
 10
10.57482549879284
 20
-15.66931491427959
 30
0.0
  0
VERTEX
  5
181
330
16B
100
AcDbEntity
  8
Layer 1
 62
   250
420
  2301728
370
    35
100
AcDbVertex
100
AcDb2dVertex
 10
10.57482549879284
 20
-15.82088979085291
 30
0.0
  0
VERTEX
  5
182
330
16B
100
AcDbEntity
  8
Layer 1
 62
   250
420
  2301728
370
    35
100
AcDbVertex
100
AcDb2dVertex
 10
11.3015982309977
 20
-15.82088979085291
 30
0.0
  0
VERTEX
  5
183
330
16B
100
AcDbEntity
  8
Layer 1
 62
   250
420
  2301728
370
    35
100
AcDbVertex
100
AcDb2dVertex
 10
11.3015982309977
 20
-15.66931491427959
 30
0.0
  0
VERTEX
  5
184
330
16B
100
AcDbEntity
  8
Layer 1
 62
   250
420
  2301728
370
    35
100
AcDbVertex
100
AcDb2dVertex
 10
11.3015982309977
 20
-15.66931491427959
 30
0.0
  0
VERTEX
  5
185
330
16B
100
AcDbEntity
  8
Layer 1
 62
   250
420
  2301728
370
    35
100
AcDbVertex
100
AcDb2dVertex
 10
11.3015982309977
 20
-15.27561442057292
 30
0.0
  0
VERTEX
  5
186
330
16B
100
AcDbEntity
  8
Layer 1
 62
   250
420
  2301728
370
    35
100
AcDbVertex
100
AcDb2dVertex
 10
11.15002420213485
 20
-15.27561442057292
 30
0.0
  0
VERTEX
  5
187
330
16B
100
AcDbEntity
  8
Layer 1
 62
   250
420
  2301728
370
    35
100
AcDbVertex
100
AcDb2dVertex
 10
11.15002420213485
 20
-14.88191307915583
 30
0.0
  0
VERTEX
  5
188
330
16B
100
AcDbEntity
  8
Layer 1
 62
   250
420
  2301728
370
    35
100
AcDbVertex
100
AcDb2dVertex
 10
11.3015982309977
 20
-14.88191307915583
 30
0.0
  0
VERTEX
  5
189
330
16B
100
AcDbEntity
  8
Layer 1
 62
   250
420
  2301728
370
    35
100
AcDbVertex
100
AcDb2dVertex
 10
11.3015982309977
 20
-14.48821258544917
 30
0.0
  0
VERTEX
  5
18A
330
16B
100
AcDbEntity
  8
Layer 1
 62
   250
420
  2301728
370
    35
100
AcDbVertex
100
AcDb2dVertex
 10
11.15002420213485
 20
-14.48821258544917
 30
0.0
  0
VERTEX
  5
18B
330
16B
100
AcDbEntity
  8
Layer 1
 62
   250
420
  2301728
370
    35
100
AcDbVertex
100
AcDb2dVertex
 10
11.15002420213485
 20
-14.09451209174263
 30
0.0
  0
VERTEX
  5
18C
330
16B
100
AcDbEntity
  8
Layer 1
 62
   250
420
  2301728
370
    35
100
AcDbVertex
100
AcDb2dVertex
 10
11.3015982309977
 20
-14.09451209174263
 30
0.0
  0
SEQEND
  5
18D
330
16B
100
AcDbEntity
  8
Layer 1
 62
   250
420
  2301728
370
    35
  0
POLYLINE
  5
18E
330
1F
100
AcDbEntity
  8
Layer 1
 62
   250
420
  2301728
370
    35
100
AcDb2dPolyline
 66
     1
 10
0.0
 20
0.0
 30
0.0
  0
VERTEX
  5
18F
330
18E
100
AcDbEntity
  8
Layer 1
 62
   250
420
  2301728
370
    35
100
AcDbVertex
100
AcDb2dVertex
 10
14.76927672492126
 20
-16.64099036322694
 30
0.0
  0
VERTEX
  5
190
330
18E
100
AcDbEntity
  8
Layer 1
 62
   250
420
  2301728
370
    35
100
AcDbVertex
100
AcDb2dVertex
 10
14.76927672492126
 20
-16.24728902180986
 30
0.0
  0
VERTEX
  5
191
330
18E
100
AcDbEntity
  8
Layer 1
 62
   250
420
  2301728
370
    35
100
AcDbVertex
100
AcDb2dVertex
 10
14.61770269605847
 20
-16.24728902180986
 30
0.0
  0
VERTEX
  5
192
330
18E
100
AcDbEntity
  8
Layer 1
 62
   250
420
  2301728
370
    35
100
AcDbVertex
100
AcDb2dVertex
 10
14.61770269605847
 20
-15.85358852810334
 30
0.0
  0
VERTEX
  5
193
330
18E
100
AcDbEntity
  8
Layer 1
 62
   250
420
  2301728
370
    35
100
AcDbVertex
100
AcDb2dVertex
 10
11.47859679328068
 20
-15.85358852810334
 30
0.0
  0
VERTEX
  5
194
330
18E
100
AcDbEntity
  8
Layer 1
 62
   250
420
  2301728
370
    35
100
AcDbVertex
100
AcDb2dVertex
 10
11.47859679328068
 20
-16.24728986952041
 30
0.0
  0
VERTEX
  5
195
330
18E
100
AcDbEntity
  8
Layer 1
 62
   250
420
  2301728
370
    35
100
AcDbVertex
100
AcDb2dVertex
 10
11.32702106899683
 20
-16.24728986952041
 30
0.0
  0
VERTEX
  5
196
330
18E
100
AcDbEntity
  8
Layer 1
 62
   250
420
  2301728
370
    35
100
AcDbVertex
100
AcDb2dVertex
 10
11.32702106899683
 20
-16.64099036322694
 30
0.0
  0
VERTEX
  5
197
330
18E
100
AcDbEntity
  8
Layer 1
 62
   250
420
  2301728
370
    35
100
AcDbVertex
100
AcDb2dVertex
 10
11.47859679328068
 20
-16.64099036322694
 30
0.0
  0
VERTEX
  5
198
330
18E
100
AcDbEntity
  8
Layer 1
 62
   250
420
  2301728
370
    35
100
AcDbVertex
100
AcDb2dVertex
 10
11.47859679328068
 20
-17.0346908569336
 30
0.0
  0
VERTEX
  5
199
330
18E
100
AcDbEntity
  8
Layer 1
 62
   250
420
  2301728
370
    35
100
AcDbVertex
100
AcDb2dVertex
 10
11.32702106899683
 20
-17.0346908569336
 30
0.0
  0
VERTEX
  5
19A
330
18E
100
AcDbEntity
  8
Layer 1
 62
   250
420
  2301728
370
    35
100
AcDbVertex
100
AcDb2dVertex
 10
11.32702106899683
 20
-17.42839135064014
 30
0.0
  0
VERTEX
  5
19B
330
18E
100
AcDbEntity
  8
Layer 1
 62
   250
420
  2301728
370
    35
100
AcDbVertex
100
AcDb2dVertex
 10
11.47859679328068
 20
-17.42839135064014
 30
0.0
  0
VERTEX
  5
19C
330
18E
100
AcDbEntity
  8
Layer 1
 62
   250
420
  2301728
370
    35
100
AcDbVertex
100
AcDb2dVertex
 10
11.47859679328068
 20
-17.82209269205737
 30
0.0
  0
VERTEX
  5
19D
330
18E
100
AcDbEntity
  8
Layer 1
 62
   250
420
  2301728
370
    35
100
AcDbVertex
100
AcDb2dVertex
 10
11.47859679328068
 20
-17.82209269205737
 30
0.0
  0
VERTEX
  5
19E
330
18E
100
AcDbEntity
  8
Layer 1
 62
   250
420
  2301728
370
    35
100
AcDbVertex
100
AcDb2dVertex
 10
11.47859679328068
 20
-17.97366756863069
 30
0.0
  0
VERTEX
  5
19F
330
18E
100
AcDbEntity
  8
Layer 1
 62
   250
420
  2301728
370
    35
100
AcDbVertex
100
AcDb2dVertex
 10
12.01547220018172
 20
-17.97366756863069
 30
0.0
  0
VERTEX
  5
1A0
330
18E
100
AcDbEntity
  8
Layer 1
 62
   250
420
  2301728
370
    35
100
AcDbVertex
100
AcDb2dVertex
 10
12.01547220018172
 20
-17.82209269205737
 30
0.0
  0
VERTEX
  5
1A1
330
18E
100
AcDbEntity
  8
Layer 1
 62
   250
420
  2301728
370
    35
100
AcDbVertex
100
AcDb2dVertex
 10
12.70392333136662
 20
-17.82209269205737
 30
0.0
  0
VERTEX
  5
1A2
330
18E
100
AcDbEntity
  8
Layer 1
 62
   250
420
  2301728
370
    35
100
AcDbVertex
100
AcDb2dVertex
 10
12.70392333136662
 20
-17.97366756863069
 30
0.0
  0
VERTEX
  5
1A3
330
18E
100
AcDbEntity
  8
Layer 1
 62
   250
420
  2301728
370
    35
100
AcDbVertex
100
AcDb2dVertex
 10
13.39237446255152
 20
-17.97366756863069
 30
0.0
  0
VERTEX
  5
1A4
330
18E
100
AcDbEntity
  8
Layer 1
 62
   250
420
  2301728
370
    35
100
AcDbVertex
100
AcDb2dVertex
 10
13.39237446255152
 20
-17.82209269205737
 30
0.0
  0
VERTEX
  5
1A5
330
18E
100
AcDbEntity
  8
Layer 1
 62
   250
420
  2301728
370
    35
100
AcDbVertex
100
AcDb2dVertex
 10
14.08082728915737
 20
-17.82209269205737
 30
0.0
  0
VERTEX
  5
1A6
330
18E
100
AcDbEntity
  8
Layer 1
 62
   250
420
  2301728
370
    35
100
AcDbVertex
100
AcDb2dVertex
 10
14.08082728915737
 20
-17.97366756863069
 30
0.0
  0
VERTEX
  5
1A7
330
18E
100
AcDbEntity
  8
Layer 1
 62
   250
420
  2301728
370
    35
100
AcDbVertex
100
AcDb2dVertex
 10
14.61770269605847
 20
-17.97366756863069
 30
0.0
  0
VERTEX
  5
1A8
330
18E
100
AcDbEntity
  8
Layer 1
 62
   250
420
  2301728
370
    35
100
AcDbVertex
100
AcDb2dVertex
 10
14.61770269605847
 20
-17.82209269205737
 30
0.0
  0
VERTEX
  5
1A9
330
18E
100
AcDbEntity
  8
Layer 1
 62
   250
420
  2301728
370
    35
100
AcDbVertex
100
AcDb2dVertex
 10
14.61770269605847
 20
-17.42839135064014
 30
0.0
  0
VERTEX
  5
1AA
330
18E
100
AcDbEntity
  8
Layer 1
 62
   250
420
  2301728
370
    35
100
AcDbVertex
100
AcDb2dVertex
 10
14.76927672492126
 20
-17.42839135064014
 30
0.0
  0
VERTEX
  5
1AB
330
18E
100
AcDbEntity
  8
Layer 1
 62
   250
420
  2301728
370
    35
100
AcDbVertex
100
AcDb2dVertex
 10
14.76927672492126
 20
-17.0346908569336
 30
0.0
  0
VERTEX
  5
1AC
330
18E
100
AcDbEntity
  8
Layer 1
 62
   250
420
  2301728
370
    35
100
AcDbVertex
100
AcDb2dVertex
 10
14.61770269605847
 20
-17.0346908569336
 30
0.0
  0
VERTEX
  5
1AD
330
18E
100
AcDbEntity
  8
Layer 1
 62
   250
420
  2301728
370
    35
100
AcDbVertex
100
AcDb2dVertex
 10
14.61770269605847
 20
-16.64099036322694
 30
0.0
  0
VERTEX
  5
1AE
330
18E
100
AcDbEntity
  8
Layer 1
 62
   250
420
  2301728
370
    35
100
AcDbVertex
100
AcDb2dVertex
 10
14.76927672492126
 20
-16.64099036322694
 30
0.0
  0
SEQEND
  5
1AF
330
18E
100
AcDbEntity
  8
Layer 1
 62
   250
420
  2301728
370
    35
  0
POLYLINE
  5
1B0
330
1F
100
AcDbEntity
  8
Layer 1
 62
   250
420
  2301728
370
    35
100
AcDb2dPolyline
 66
     1
 10
0.0
 20
0.0
 30
0.0
  0
VERTEX
  5
1B1
330
1B0
100
AcDbEntity
  8
Layer 1
 62
   250
420
  2301728
370
    35
100
AcDbVertex
100
AcDb2dVertex
 10
11.3015982309977
 20
-16.24728986952041
 30
0.0
  0
VERTEX
  5
1B2
330
1B0
100
AcDbEntity
  8
Layer 1
 62
   250
420
  2301728
370
    35
100
AcDbVertex
100
AcDb2dVertex
 10
11.3015982309977
 20
-15.85358852810334
 30
0.0
  0
VERTEX
  5
1B3
330
1B0
100
AcDbEntity
  8
Layer 1
 62
   250
420
  2301728
370
    35
100
AcDbVertex
100
AcDb2dVertex
 10
7.667741351657418
 20
-15.85358852810334
 30
0.0
  0
VERTEX
  5
1B4
330
1B0
100
AcDbEntity
  8
Layer 1
 62
   250
420
  2301728
370
    35
100
AcDbVertex
100
AcDb2dVertex
 10
7.667741351657418
 20
-16.24728902180986
 30
0.0
  0
VERTEX
  5
1B5
330
1B0
100
AcDbEntity
  8
Layer 1
 62
   250
420
  2301728
370
    35
100
AcDbVertex
100
AcDb2dVertex
 10
7.819315380520266
 20
-16.24728902180986
 30
0.0
  0
VERTEX
  5
1B6
330
1B0
100
AcDbEntity
  8
Layer 1
 62
   250
420
  2301728
370
    35
100
AcDbVertex
100
AcDb2dVertex
 10
7.819315380520266
 20
-16.64099036322694
 30
0.0
  0
VERTEX
  5
1B7
330
1B0
100
AcDbEntity
  8
Layer 1
 62
   250
420
  2301728
370
    35
100
AcDbVertex
100
AcDb2dVertex
 10
7.667741351657418
 20
-16.64099036322694
 30
0.0
  0
VERTEX
  5
1B8
330
1B0
100
AcDbEntity
  8
Layer 1
 62
   250
420
  2301728
370
    35
100
AcDbVertex
100
AcDb2dVertex
 10
7.667741351657418
 20
-17.0346908569336
 30
0.0
  0
VERTEX
  5
1B9
330
1B0
100
AcDbEntity
  8
Layer 1
 62
   250
420
  2301728
370
    35
100
AcDbVertex
100
AcDb2dVertex
 10
7.819315380520266
 20
-17.0346908569336
 30
0.0
  0
VERTEX
  5
1BA
330
1B0
100
AcDbEntity
  8
Layer 1
 62
   250
420
  2301728
370
    35
100
AcDbVertex
100
AcDb2dVertex
 10
7.819315380520266
 20
-17.42839135064014
 30
0.0
  0
VERTEX
  5
1BB
330
1B0
100
AcDbEntity
  8
Layer 1
 62
   250
420
  2301728
370
    35
100
AcDbVertex
100
AcDb2dVertex
 10
7.667741351657418
 20
-17.42839135064014
 30
0.0
  0
VERTEX
  5
1BC
330
1B0
100
AcDbEntity
  8
Layer 1
 62
   250
420
  2301728
370
    35
100
AcDbVertex
100
AcDb2dVertex
 10
7.667741351657418
 20
-17.82209269205737
 30
0.0
  0
VERTEX
  5
1BD
330
1B0
100
AcDbEntity
  8
Layer 1
 62
   250
420
  2301728
370
    35
100
AcDbVertex
100
AcDb2dVertex
 10
7.667741351657418
 20
-17.82209269205737
 30
0.0
  0
VERTEX
  5
1BE
330
1B0
100
AcDbEntity
  8
Layer 1
 62
   250
420
  2301728
370
    35
100
AcDbVertex
100
AcDb2dVertex
 10
7.667741351657418
 20
-17.97366756863069
 30
0.0
  0
VERTEX
  5
1BF
330
1B0
100
AcDbEntity
  8
Layer 1
 62
   250
420
  2301728
370
    35
100
AcDbVertex
100
AcDb2dVertex
 10
8.394510693020266
 20
-17.97366756863069
 30
0.0
  0
VERTEX
  5
1C0
330
1B0
100
AcDbEntity
  8
Layer 1
 62
   250
420
  2301728
370
    35
100
AcDbVertex
100
AcDb2dVertex
 10
8.394510693020266
 20
-17.82209269205737
 30
0.0
  0
VERTEX
  5
1C1
330
1B0
100
AcDbEntity
  8
Layer 1
 62
   250
420
  2301728
370
    35
100
AcDbVertex
100
AcDb2dVertex
 10
9.121283425225126
 20
-17.82209269205737
 30
0.0
  0
VERTEX
  5
1C2
330
1B0
100
AcDbEntity
  8
Layer 1
 62
   250
420
  2301728
370
    35
100
AcDbVertex
100
AcDb2dVertex
 10
9.121283425225126
 20
-17.97366756863069
 30
0.0
  0
VERTEX
  5
1C3
330
1B0
100
AcDbEntity
  8
Layer 1
 62
   250
420
  2301728
370
    35
100
AcDbVertex
100
AcDb2dVertex
 10
9.848056157429987
 20
-17.97366756863069
 30
0.0
  0
VERTEX
  5
1C4
330
1B0
100
AcDbEntity
  8
Layer 1
 62
   250
420
  2301728
370
    35
100
AcDbVertex
100
AcDb2dVertex
 10
9.848056157429987
 20
-17.82209269205737
 30
0.0
  0
VERTEX
  5
1C5
330
1B0
100
AcDbEntity
  8
Layer 1
 62
   250
420
  2301728
370
    35
100
AcDbVertex
100
AcDb2dVertex
 10
10.57482549879284
 20
-17.82209269205737
 30
0.0
  0
VERTEX
  5
1C6
330
1B0
100
AcDbEntity
  8
Layer 1
 62
   250
420
  2301728
370
    35
100
AcDbVertex
100
AcDb2dVertex
 10
10.57482549879284
 20
-17.97366756863069
 30
0.0
  0
VERTEX
  5
1C7
330
1B0
100
AcDbEntity
  8
Layer 1
 62
   250
420
  2301728
370
    35
100
AcDbVertex
100
AcDb2dVertex
 10
11.3015982309977
 20
-17.97366756863069
 30
0.0
  0
VERTEX
  5
1C8
330
1B0
100
AcDbEntity
  8
Layer 1
 62
   250
420
  2301728
370
    35
100
AcDbVertex
100
AcDb2dVertex
 10
11.3015982309977
 20
-17.82209269205737
 30
0.0
  0
VERTEX
  5
1C9
330
1B0
100
AcDbEntity
  8
Layer 1
 62
   250
420
  2301728
370
    35
100
AcDbVertex
100
AcDb2dVertex
 10
11.3015982309977
 20
-17.82209269205737
 30
0.0
  0
VERTEX
  5
1CA
330
1B0
100
AcDbEntity
  8
Layer 1
 62
   250
420
  2301728
370
    35
100
AcDbVertex
100
AcDb2dVertex
 10
11.3015982309977
 20
-17.42839219835069
 30
0.0
  0
VERTEX
  5
1CB
330
1B0
100
AcDbEntity
  8
Layer 1
 62
   250
420
  2301728
370
    35
100
AcDbVertex
100
AcDb2dVertex
 10
11.15002420213485
 20
-17.42839219835069
 30
0.0
  0
VERTEX
  5
1CC
330
1B0
100
AcDbEntity
  8
Layer 1
 62
   250
420
  2301728
370
    35
100
AcDbVertex
100
AcDb2dVertex
 10
11.15002420213485
 20
-17.0346908569336
 30
0.0
  0
VERTEX
  5
1CD
330
1B0
100
AcDbEntity
  8
Layer 1
 62
   250
420
  2301728
370
    35
100
AcDbVertex
100
AcDb2dVertex
 10
11.3015982309977
 20
-17.0346908569336
 30
0.0
  0
VERTEX
  5
1CE
330
1B0
100
AcDbEntity
  8
Layer 1
 62
   250
420
  2301728
370
    35
100
AcDbVertex
100
AcDb2dVertex
 10
11.3015982309977
 20
-16.64099036322694
 30
0.0
  0
VERTEX
  5
1CF
330
1B0
100
AcDbEntity
  8
Layer 1
 62
   250
420
  2301728
370
    35
100
AcDbVertex
100
AcDb2dVertex
 10
11.15002420213485
 20
-16.64099036322694
 30
0.0
  0
VERTEX
  5
1D0
330
1B0
100
AcDbEntity
  8
Layer 1
 62
   250
420
  2301728
370
    35
100
AcDbVertex
100
AcDb2dVertex
 10
11.15002420213485
 20
-16.24728986952041
 30
0.0
  0
VERTEX
  5
1D1
330
1B0
100
AcDbEntity
  8
Layer 1
 62
   250
420
  2301728
370
    35
100
AcDbVertex
100
AcDb2dVertex
 10
11.3015982309977
 20
-16.24728986952041
 30
0.0
  0
SEQEND
  5
1D2
330
1B0
100
AcDbEntity
  8
Layer 1
 62
   250
420
  2301728
370
    35
  0
POLYLINE
  5
1D3
330
1F
100
AcDbEntity
  8
Layer 1
 62
   250
420
  2301728
370
    35
100
AcDb2dPolyline
 66
     1
 10
0.0
 20
0.0
 30
0.0
  0
VERTEX
  5
1D4
330
1D3
100
AcDbEntity
  8
Layer 1
 62
   250
420
  2301728
370
    35
100
AcDbVertex
100
AcDb2dVertex
 10
14.76927672492126
 20
-18.79376814100472
 30
0.0
  0
VERTEX
  5
1D5
330
1D3
100
AcDbEntity
  8
Layer 1
 62
   250
420
  2301728
370
    35
100
AcDbVertex
100
AcDb2dVertex
 10
14.76927672492126
 20
-18.40006679958765
 30
0.0
  0
VERTEX
  5
1D6
330
1D3
100
AcDbEntity
  8
Layer 1
 62
   250
420
  2301728
370
    35
100
AcDbVertex
100
AcDb2dVertex
 10
14.61770269605847
 20
-18.40006679958765
 30
0.0
  0
VERTEX
  5
1D7
330
1D3
100
AcDbEntity
  8
Layer 1
 62
   250
420
  2301728
370
    35
100
AcDbVertex
100
AcDb2dVertex
 10
14.61770269605847
 20
-18.0063663058811
 30
0.0
  0
VERTEX
  5
1D8
330
1D3
100
AcDbEntity
  8
Layer 1
 62
   250
420
  2301728
370
    35
100
AcDbVertex
100
AcDb2dVertex
 10
11.47859679328068
 20
-18.0063663058811
 30
0.0
  0
VERTEX
  5
1D9
330
1D3
100
AcDbEntity
  8
Layer 1
 62
   250
420
  2301728
370
    35
100
AcDbVertex
100
AcDb2dVertex
 10
11.47859679328068
 20
-18.4000676472982
 30
0.0
  0
VERTEX
  5
1DA
330
1D3
100
AcDbEntity
  8
Layer 1
 62
   250
420
  2301728
370
    35
100
AcDbVertex
100
AcDb2dVertex
 10
11.32702106899683
 20
-18.4000676472982
 30
0.0
  0
VERTEX
  5
1DB
330
1D3
100
AcDbEntity
  8
Layer 1
 62
   250
420
  2301728
370
    35
100
AcDbVertex
100
AcDb2dVertex
 10
11.32702106899683
 20
-18.79376814100472
 30
0.0
  0
VERTEX
  5
1DC
330
1D3
100
AcDbEntity
  8
Layer 1
 62
   250
420
  2301728
370
    35
100
AcDbVertex
100
AcDb2dVertex
 10
11.47859679328068
 20
-18.79376814100472
 30
0.0
  0
VERTEX
  5
1DD
330
1D3
100
AcDbEntity
  8
Layer 1
 62
   250
420
  2301728
370
    35
100
AcDbVertex
100
AcDb2dVertex
 10
11.47859679328068
 20
-19.1874686347114
 30
0.0
  0
VERTEX
  5
1DE
330
1D3
100
AcDbEntity
  8
Layer 1
 62
   250
420
  2301728
370
    35
100
AcDbVertex
100
AcDb2dVertex
 10
11.32702106899683
 20
-19.1874686347114
 30
0.0
  0
VERTEX
  5
1DF
330
1D3
100
AcDbEntity
  8
Layer 1
 62
   250
420
  2301728
370
    35
100
AcDbVertex
100
AcDb2dVertex
 10
11.32702106899683
 20
-19.58116912841792
 30
0.0
  0
VERTEX
  5
1E0
330
1D3
100
AcDbEntity
  8
Layer 1
 62
   250
420
  2301728
370
    35
100
AcDbVertex
100
AcDb2dVertex
 10
11.47859679328068
 20
-19.58116912841792
 30
0.0
  0
VERTEX
  5
1E1
330
1D3
100
AcDbEntity
  8
Layer 1
 62
   250
420
  2301728
370
    35
100
AcDbVertex
100
AcDb2dVertex
 10
11.47859679328068
 20
-19.97487046983514
 30
0.0
  0
VERTEX
  5
1E2
330
1D3
100
AcDbEntity
  8
Layer 1
 62
   250
420
  2301728
370
    35
100
AcDbVertex
100
AcDb2dVertex
 10
11.47859679328068
 20
-19.97487046983514
 30
0.0
  0
VERTEX
  5
1E3
330
1D3
100
AcDbEntity
  8
Layer 1
 62
   250
420
  2301728
370
    35
100
AcDbVertex
100
AcDb2dVertex
 10
11.47859679328068
 20
-20.12644534640847
 30
0.0
  0
VERTEX
  5
1E4
330
1D3
100
AcDbEntity
  8
Layer 1
 62
   250
420
  2301728
370
    35
100
AcDbVertex
100
AcDb2dVertex
 10
12.01547220018172
 20
-20.12644534640847
 30
0.0
  0
VERTEX
  5
1E5
330
1D3
100
AcDbEntity
  8
Layer 1
 62
   250
420
  2301728
370
    35
100
AcDbVertex
100
AcDb2dVertex
 10
12.01547220018172
 20
-19.97487046983514
 30
0.0
  0
VERTEX
  5
1E6
330
1D3
100
AcDbEntity
  8
Layer 1
 62
   250
420
  2301728
370
    35
100
AcDbVertex
100
AcDb2dVertex
 10
12.70392333136662
 20
-19.97487046983514
 30
0.0
  0
VERTEX
  5
1E7
330
1D3
100
AcDbEntity
  8
Layer 1
 62
   250
420
  2301728
370
    35
100
AcDbVertex
100
AcDb2dVertex
 10
12.70392333136662
 20
-20.12644534640847
 30
0.0
  0
VERTEX
  5
1E8
330
1D3
100
AcDbEntity
  8
Layer 1
 62
   250
420
  2301728
370
    35
100
AcDbVertex
100
AcDb2dVertex
 10
13.39237446255152
 20
-20.12644534640847
 30
0.0
  0
VERTEX
  5
1E9
330
1D3
100
AcDbEntity
  8
Layer 1
 62
   250
420
  2301728
370
    35
100
AcDbVertex
100
AcDb2dVertex
 10
13.39237446255152
 20
-19.97487046983514
 30
0.0
  0
VERTEX
  5
1EA
330
1D3
100
AcDbEntity
  8
Layer 1
 62
   250
420
  2301728
370
    35
100
AcDbVertex
100
AcDb2dVertex
 10
14.08082728915737
 20
-19.97487046983514
 30
0.0
  0
VERTEX
  5
1EB
330
1D3
100
AcDbEntity
  8
Layer 1
 62
   250
420
  2301728
370
    35
100
AcDbVertex
100
AcDb2dVertex
 10
14.08082728915737
 20
-20.12644534640847
 30
0.0
  0
VERTEX
  5
1EC
330
1D3
100
AcDbEntity
  8
Layer 1
 62
   250
420
  2301728
370
    35
100
AcDbVertex
100
AcDb2dVertex
 10
14.61770269605847
 20
-20.12644534640847
 30
0.0
  0
VERTEX
  5
1ED
330
1D3
100
AcDbEntity
  8
Layer 1
 62
   250
420
  2301728
370
    35
100
AcDbVertex
100
AcDb2dVertex
 10
14.61770269605847
 20
-19.97487046983514
 30
0.0
  0
VERTEX
  5
1EE
330
1D3
100
AcDbEntity
  8
Layer 1
 62
   250
420
  2301728
370
    35
100
AcDbVertex
100
AcDb2dVertex
 10
14.61770269605847
 20
-19.58116912841792
 30
0.0
  0
VERTEX
  5
1EF
330
1D3
100
AcDbEntity
  8
Layer 1
 62
   250
420
  2301728
370
    35
100
AcDbVertex
100
AcDb2dVertex
 10
14.76927672492126
 20
-19.58116912841792
 30
0.0
  0
VERTEX
  5
1F0
330
1D3
100
AcDbEntity
  8
Layer 1
 62
   250
420
  2301728
370
    35
100
AcDbVertex
100
AcDb2dVertex
 10
14.76927672492126
 20
-19.1874686347114
 30
0.0
  0
VERTEX
  5
1F1
330
1D3
100
AcDbEntity
  8
Layer 1
 62
   250
420
  2301728
370
    35
100
AcDbVertex
100
AcDb2dVertex
 10
14.61770269605847
 20
-19.1874686347114
 30
0.0
  0
VERTEX
  5
1F2
330
1D3
100
AcDbEntity
  8
Layer 1
 62
   250
420
  2301728
370
    35
100
AcDbVertex
100
AcDb2dVertex
 10
14.61770269605847
 20
-18.79376814100472
 30
0.0
  0
VERTEX
  5
1F3
330
1D3
100
AcDbEntity
  8
Layer 1
 62
   250
420
  2301728
370
    35
100
AcDbVertex
100
AcDb2dVertex
 10
14.76927672492126
 20
-18.79376814100472
 30
0.0
  0
SEQEND
  5
1F4
330
1D3
100
AcDbEntity
  8
Layer 1
 62
   250
420
  2301728
370
    35
  0
POLYLINE
  5
1F5
330
1F
100
AcDbEntity
  8
Layer 1
 62
   250
420
  2301728
370
    35
100
AcDb2dPolyline
 66
     1
 10
0.0
 20
0.0
 30
0.0
  0
VERTEX
  5
1F6
330
1F5
100
AcDbEntity
  8
Layer 1
 62
   250
420
  2301728
370
    35
100
AcDbVertex
100
AcDb2dVertex
 10
11.3015982309977
 20
-18.4000676472982
 30
0.0
  0
VERTEX
  5
1F7
330
1F5
100
AcDbEntity
  8
Layer 1
 62
   250
420
  2301728
370
    35
100
AcDbVertex
100
AcDb2dVertex
 10
11.3015982309977
 20
-18.0063663058811
 30
0.0
  0
VERTEX
  5
1F8
330
1F5
100
AcDbEntity
  8
Layer 1
 62
   250
420
  2301728
370
    35
100
AcDbVertex
100
AcDb2dVertex
 10
7.667741351657418
 20
-18.0063663058811
 30
0.0
  0
VERTEX
  5
1F9
330
1F5
100
AcDbEntity
  8
Layer 1
 62
   250
420
  2301728
370
    35
100
AcDbVertex
100
AcDb2dVertex
 10
7.667741351657418
 20
-18.40006679958765
 30
0.0
  0
VERTEX
  5
1FA
330
1F5
100
AcDbEntity
  8
Layer 1
 62
   250
420
  2301728
370
    35
100
AcDbVertex
100
AcDb2dVertex
 10
7.819315380520266
 20
-18.40006679958765
 30
0.0
  0
VERTEX
  5
1FB
330
1F5
100
AcDbEntity
  8
Layer 1
 62
   250
420
  2301728
370
    35
100
AcDbVertex
100
AcDb2dVertex
 10
7.819315380520266
 20
-18.79376814100472
 30
0.0
  0
VERTEX
  5
1FC
330
1F5
100
AcDbEntity
  8
Layer 1
 62
   250
420
  2301728
370
    35
100
AcDbVertex
100
AcDb2dVertex
 10
7.667741351657418
 20
-18.79376814100472
 30
0.0
  0
VERTEX
  5
1FD
330
1F5
100
AcDbEntity
  8
Layer 1
 62
   250
420
  2301728
370
    35
100
AcDbVertex
100
AcDb2dVertex
 10
7.667741351657418
 20
-19.1874686347114
 30
0.0
  0
VERTEX
  5
1FE
330
1F5
100
AcDbEntity
  8
Layer 1
 62
   250
420
  2301728
370
    35
100
AcDbVertex
100
AcDb2dVertex
 10
7.819315380520266
 20
-19.1874686347114
 30
0.0
  0
VERTEX
  5
1FF
330
1F5
100
AcDbEntity
  8
Layer 1
 62
   250
420
  2301728
370
    35
100
AcDbVertex
100
AcDb2dVertex
 10
7.819315380520266
 20
-19.58116912841792
 30
0.0
  0
VERTEX
  5
200
330
1F5
100
AcDbEntity
  8
Layer 1
 62
   250
420
  2301728
370
    35
100
AcDbVertex
100
AcDb2dVertex
 10
7.667741351657418
 20
-19.58116912841792
 30
0.0
  0
VERTEX
  5
201
330
1F5
100
AcDbEntity
  8
Layer 1
 62
   250
420
  2301728
370
    35
100
AcDbVertex
100
AcDb2dVertex
 10
7.667741351657418
 20
-19.97487046983514
 30
0.0
  0
VERTEX
  5
202
330
1F5
100
AcDbEntity
  8
Layer 1
 62
   250
420
  2301728
370
    35
100
AcDbVertex
100
AcDb2dVertex
 10
7.667741351657418
 20
-19.97487046983514
 30
0.0
  0
VERTEX
  5
203
330
1F5
100
AcDbEntity
  8
Layer 1
 62
   250
420
  2301728
370
    35
100
AcDbVertex
100
AcDb2dVertex
 10
7.667741351657418
 20
-20.12644534640847
 30
0.0
  0
VERTEX
  5
204
330
1F5
100
AcDbEntity
  8
Layer 1
 62
   250
420
  2301728
370
    35
100
AcDbVertex
100
AcDb2dVertex
 10
8.394510693020266
 20
-20.12644534640847
 30
0.0
  0
VERTEX
  5
205
330
1F5
100
AcDbEntity
  8
Layer 1
 62
   250
420
  2301728
370
    35
100
AcDbVertex
100
AcDb2dVertex
 10
8.394510693020266
 20
-19.97487046983514
 30
0.0
  0
VERTEX
  5
206
330
1F5
100
AcDbEntity
  8
Layer 1
 62
   250
420
  2301728
370
    35
100
AcDbVertex
100
AcDb2dVertex
 10
9.121283425225126
 20
-19.97487046983514
 30
0.0
  0
VERTEX
  5
207
330
1F5
100
AcDbEntity
  8
Layer 1
 62
   250
420
  2301728
370
    35
100
AcDbVertex
100
AcDb2dVertex
 10
9.121283425225126
 20
-20.12644534640847
 30
0.0
  0
VERTEX
  5
208
330
1F5
100
AcDbEntity
  8
Layer 1
 62
   250
420
  2301728
370
    35
100
AcDbVertex
100
AcDb2dVertex
 10
9.848056157429987
 20
-20.12644534640847
 30
0.0
  0
VERTEX
  5
209
330
1F5
100
AcDbEntity
  8
Layer 1
 62
   250
420
  2301728
370
    35
100
AcDbVertex
100
AcDb2dVertex
 10
9.848056157429987
 20
-19.97487046983514
 30
0.0
  0
VERTEX
  5
20A
330
1F5
100
AcDbEntity
  8
Layer 1
 62
   250
420
  2301728
370
    35
100
AcDbVertex
100
AcDb2dVertex
 10
10.57482549879284
 20
-19.97487046983514
 30
0.0
  0
VERTEX
  5
20B
330
1F5
100
AcDbEntity
  8
Layer 1
 62
   250
420
  2301728
370
    35
100
AcDbVertex
100
AcDb2dVertex
 10
10.57482549879284
 20
-20.12644534640847
 30
0.0
  0
VERTEX
  5
20C
330
1F5
100
AcDbEntity
  8
Layer 1
 62
   250
420
  2301728
370
    35
100
AcDbVertex
100
AcDb2dVertex
 10
11.3015982309977
 20
-20.12644534640847
 30
0.0
  0
VERTEX
  5
20D
330
1F5
100
AcDbEntity
  8
Layer 1
 62
   250
420
  2301728
370
    35
100
AcDbVertex
100
AcDb2dVertex
 10
11.3015982309977
 20
-19.97487046983514
 30
0.0
  0
VERTEX
  5
20E
330
1F5
100
AcDbEntity
  8
Layer 1
 62
   250
420
  2301728
370
    35
100
AcDbVertex
100
AcDb2dVertex
 10
11.3015982309977
 20
-19.97487046983514
 30
0.0
  0
VERTEX
  5
20F
330
1F5
100
AcDbEntity
  8
Layer 1
 62
   250
420
  2301728
370
    35
100
AcDbVertex
100
AcDb2dVertex
 10
11.3015982309977
 20
-19.58116997612847
 30
0.0
  0
VERTEX
  5
210
330
1F5
100
AcDbEntity
  8
Layer 1
 62
   250
420
  2301728
370
    35
100
AcDbVertex
100
AcDb2dVertex
 10
11.15002420213485
 20
-19.58116997612847
 30
0.0
  0
VERTEX
  5
211
330
1F5
100
AcDbEntity
  8
Layer 1
 62
   250
420
  2301728
370
    35
100
AcDbVertex
100
AcDb2dVertex
 10
11.15002420213485
 20
-19.1874686347114
 30
0.0
  0
VERTEX
  5
212
330
1F5
100
AcDbEntity
  8
Layer 1
 62
   250
420
  2301728
370
    35
100
AcDbVertex
100
AcDb2dVertex
 10
11.3015982309977
 20
-19.1874686347114
 30
0.0
  0
VERTEX
  5
213
330
1F5
100
AcDbEntity
  8
Layer 1
 62
   250
420
  2301728
370
    35
100
AcDbVertex
100
AcDb2dVertex
 10
11.3015982309977
 20
-18.79376814100472
 30
0.0
  0
VERTEX
  5
214
330
1F5
100
AcDbEntity
  8
Layer 1
 62
   250
420
  2301728
370
    35
100
AcDbVertex
100
AcDb2dVertex
 10
11.15002420213485
 20
-18.79376814100472
 30
0.0
  0
VERTEX
  5
215
330
1F5
100
AcDbEntity
  8
Layer 1
 62
   250
420
  2301728
370
    35
100
AcDbVertex
100
AcDb2dVertex
 10
11.15002420213485
 20
-18.4000676472982
 30
0.0
  0
VERTEX
  5
216
330
1F5
100
AcDbEntity
  8
Layer 1
 62
   250
420
  2301728
370
    35
100
AcDbVertex
100
AcDb2dVertex
 10
11.3015982309977
 20
-18.4000676472982
 30
0.0
  0
SEQEND
  5
217
330
1F5
100
AcDbEntity
  8
Layer 1
 62
   250
420
  2301728
370
    35
  0
POLYLINE
  5
218
330
1F
100
AcDbEntity
  8
Layer 1
 62
   250
420
  2301728
370
    35
100
AcDb2dPolyline
 66
     1
 10
0.0
 20
0.0
 30
0.0
  0
VERTEX
  5
219
330
218
100
AcDbEntity
  8
Layer 1
 62
   250
420
  2301728
370
    35
100
AcDbVertex
100
AcDb2dVertex
 10
14.76927672492126
 20
-20.9465459187825
 30
0.0
  0
VERTEX
  5
21A
330
218
100
AcDbEntity
  8
Layer 1
 62
   250
420
  2301728
370
    35
100
AcDbVertex
100
AcDb2dVertex
 10
14.76927672492126
 20
-20.55284457736542
 30
0.0
  0
VERTEX
  5
21B
330
218
100
AcDbEntity
  8
Layer 1
 62
   250
420
  2301728
370
    35
100
AcDbVertex
100
AcDb2dVertex
 10
14.61770269605847
 20
-20.55284457736542
 30
0.0
  0
VERTEX
  5
21C
330
218
100
AcDbEntity
  8
Layer 1
 62
   250
420
  2301728
370
    35
100
AcDbVertex
100
AcDb2dVertex
 10
14.61770269605847
 20
-20.15914408365888
 30
0.0
  0
VERTEX
  5
21D
330
218
100
AcDbEntity
  8
Layer 1
 62
   250
420
  2301728
370
    35
100
AcDbVertex
100
AcDb2dVertex
 10
11.47859679328068
 20
-20.15914408365888
 30
0.0
  0
VERTEX
  5
21E
330
218
100
AcDbEntity
  8
Layer 1
 62
   250
420
  2301728
370
    35
100
AcDbVertex
100
AcDb2dVertex
 10
11.47859679328068
 20
-20.55284542507598
 30
0.0
  0
VERTEX
  5
21F
330
218
100
AcDbEntity
  8
Layer 1
 62
   250
420
  2301728
370
    35
100
AcDbVertex
100
AcDb2dVertex
 10
11.32702106899683
 20
-20.55284542507598
 30
0.0
  0
VERTEX
  5
220
330
218
100
AcDbEntity
  8
Layer 1
 62
   250
420
  2301728
370
    35
100
AcDbVertex
100
AcDb2dVertex
 10
11.32702106899683
 20
-20.9465459187825
 30
0.0
  0
VERTEX
  5
221
330
218
100
AcDbEntity
  8
Layer 1
 62
   250
420
  2301728
370
    35
100
AcDbVertex
100
AcDb2dVertex
 10
11.47859679328068
 20
-20.9465459187825
 30
0.0
  0
VERTEX
  5
222
330
218
100
AcDbEntity
  8
Layer 1
 62
   250
420
  2301728
370
    35
100
AcDbVertex
100
AcDb2dVertex
 10
11.47859679328068
 20
-21.34024641248917
 30
0.0
  0
VERTEX
  5
223
330
218
100
AcDbEntity
  8
Layer 1
 62
   250
420
  2301728
370
    35
100
AcDbVertex
100
AcDb2dVertex
 10
11.32702106899683
 20
-21.34024641248917
 30
0.0
  0
VERTEX
  5
224
330
218
100
AcDbEntity
  8
Layer 1
 62
   250
420
  2301728
370
    35
100
AcDbVertex
100
AcDb2dVertex
 10
11.32702106899683
 20
-21.73394690619569
 30
0.0
  0
VERTEX
  5
225
330
218
100
AcDbEntity
  8
Layer 1
 62
   250
420
  2301728
370
    35
100
AcDbVertex
100
AcDb2dVertex
 10
11.47859679328068
 20
-21.73394690619569
 30
0.0
  0
VERTEX
  5
226
330
218
100
AcDbEntity
  8
Layer 1
 62
   250
420
  2301728
370
    35
100
AcDbVertex
100
AcDb2dVertex
 10
11.47859679328068
 20
-22.12764824761292
 30
0.0
  0
VERTEX
  5
227
330
218
100
AcDbEntity
  8
Layer 1
 62
   250
420
  2301728
370
    35
100
AcDbVertex
100
AcDb2dVertex
 10
11.47859679328068
 20
-22.12764824761292
 30
0.0
  0
VERTEX
  5
228
330
218
100
AcDbEntity
  8
Layer 1
 62
   250
420
  2301728
370
    35
100
AcDbVertex
100
AcDb2dVertex
 10
11.47859679328068
 20
-22.27922312418625
 30
0.0
  0
VERTEX
  5
229
330
218
100
AcDbEntity
  8
Layer 1
 62
   250
420
  2301728
370
    35
100
AcDbVertex
100
AcDb2dVertex
 10
12.01547220018172
 20
-22.27922312418625
 30
0.0
  0
VERTEX
  5
22A
330
218
100
AcDbEntity
  8
Layer 1
 62
   250
420
  2301728
370
    35
100
AcDbVertex
100
AcDb2dVertex
 10
12.01547220018172
 20
-22.12764824761292
 30
0.0
  0
VERTEX
  5
22B
330
218
100
AcDbEntity
  8
Layer 1
 62
   250
420
  2301728
370
    35
100
AcDbVertex
100
AcDb2dVertex
 10
12.70392333136662
 20
-22.12764824761292
 30
0.0
  0
VERTEX
  5
22C
330
218
100
AcDbEntity
  8
Layer 1
 62
   250
420
  2301728
370
    35
100
AcDbVertex
100
AcDb2dVertex
 10
12.70392333136662
 20
-22.27922312418625
 30
0.0
  0
VERTEX
  5
22D
330
218
100
AcDbEntity
  8
Layer 1
 62
   250
420
  2301728
370
    35
100
AcDbVertex
100
AcDb2dVertex
 10
13.39237446255152
 20
-22.27922312418625
 30
0.0
  0
VERTEX
  5
22E
330
218
100
AcDbEntity
  8
Layer 1
 62
   250
420
  2301728
370
    35
100
AcDbVertex
100
AcDb2dVertex
 10
13.39237446255152
 20
-22.12764824761292
 30
0.0
  0
VERTEX
  5
22F
330
218
100
AcDbEntity
  8
Layer 1
 62
   250
420
  2301728
370
    35
100
AcDbVertex
100
AcDb2dVertex
 10
14.08082728915737
 20
-22.12764824761292
 30
0.0
  0
VERTEX
  5
230
330
218
100
AcDbEntity
  8
Layer 1
 62
   250
420
  2301728
370
    35
100
AcDbVertex
100
AcDb2dVertex
 10
14.08082728915737
 20
-22.27922312418625
 30
0.0
  0
VERTEX
  5
231
330
218
100
AcDbEntity
  8
Layer 1
 62
   250
420
  2301728
370
    35
100
AcDbVertex
100
AcDb2dVertex
 10
14.61770269605847
 20
-22.27922312418625
 30
0.0
  0
VERTEX
  5
232
330
218
100
AcDbEntity
  8
Layer 1
 62
   250
420
  2301728
370
    35
100
AcDbVertex
100
AcDb2dVertex
 10
14.61770269605847
 20
-22.12764824761292
 30
0.0
  0
VERTEX
  5
233
330
218
100
AcDbEntity
  8
Layer 1
 62
   250
420
  2301728
370
    35
100
AcDbVertex
100
AcDb2dVertex
 10
14.61770269605847
 20
-21.73394690619569
 30
0.0
  0
VERTEX
  5
234
330
218
100
AcDbEntity
  8
Layer 1
 62
   250
420
  2301728
370
    35
100
AcDbVertex
100
AcDb2dVertex
 10
14.76927672492126
 20
-21.73394690619569
 30
0.0
  0
VERTEX
  5
235
330
218
100
AcDbEntity
  8
Layer 1
 62
   250
420
  2301728
370
    35
100
AcDbVertex
100
AcDb2dVertex
 10
14.76927672492126
 20
-21.34024641248917
 30
0.0
  0
VERTEX
  5
236
330
218
100
AcDbEntity
  8
Layer 1
 62
   250
420
  2301728
370
    35
100
AcDbVertex
100
AcDb2dVertex
 10
14.61770269605847
 20
-21.34024641248917
 30
0.0
  0
VERTEX
  5
237
330
218
100
AcDbEntity
  8
Layer 1
 62
   250
420
  2301728
370
    35
100
AcDbVertex
100
AcDb2dVertex
 10
14.61770269605847
 20
-20.9465459187825
 30
0.0
  0
VERTEX
  5
238
330
218
100
AcDbEntity
  8
Layer 1
 62
   250
420
  2301728
370
    35
100
AcDbVertex
100
AcDb2dVertex
 10
14.76927672492126
 20
-20.9465459187825
 30
0.0
  0
SEQEND
  5
239
330
218
100
AcDbEntity
  8
Layer 1
 62
   250
420
  2301728
370
    35
  0
POLYLINE
  5
23A
330
1F
100
AcDbEntity
  8
Layer 1
 62
   250
420
  2301728
370
    35
100
AcDb2dPolyline
 66
     1
 10
0.0
 20
0.0
 30
0.0
  0
VERTEX
  5
23B
330
23A
100
AcDbEntity
  8
Layer 1
 62
   250
420
  2301728
370
    35
100
AcDbVertex
100
AcDb2dVertex
 10
11.3015982309977
 20
-20.55284542507598
 30
0.0
  0
VERTEX
  5
23C
330
23A
100
AcDbEntity
  8
Layer 1
 62
   250
420
  2301728
370
    35
100
AcDbVertex
100
AcDb2dVertex
 10
11.3015982309977
 20
-20.15914408365888
 30
0.0
  0
VERTEX
  5
23D
330
23A
100
AcDbEntity
  8
Layer 1
 62
   250
420
  2301728
370
    35
100
AcDbVertex
100
AcDb2dVertex
 10
7.667741351657418
 20
-20.15914408365888
 30
0.0
  0
VERTEX
  5
23E
330
23A
100
AcDbEntity
  8
Layer 1
 62
   250
420
  2301728
370
    35
100
AcDbVertex
100
AcDb2dVertex
 10
7.667741351657418
 20
-20.55284457736542
 30
0.0
  0
VERTEX
  5
23F
330
23A
100
AcDbEntity
  8
Layer 1
 62
   250
420
  2301728
370
    35
100
AcDbVertex
100
AcDb2dVertex
 10
7.819315380520266
 20
-20.55284457736542
 30
0.0
  0
VERTEX
  5
240
330
23A
100
AcDbEntity
  8
Layer 1
 62
   250
420
  2301728
370
    35
100
AcDbVertex
100
AcDb2dVertex
 10
7.819315380520266
 20
-20.9465459187825
 30
0.0
  0
VERTEX
  5
241
330
23A
100
AcDbEntity
  8
Layer 1
 62
   250
420
  2301728
370
    35
100
AcDbVertex
100
AcDb2dVertex
 10
7.667741351657418
 20
-20.9465459187825
 30
0.0
  0
VERTEX
  5
242
330
23A
100
AcDbEntity
  8
Layer 1
 62
   250
420
  2301728
370
    35
100
AcDbVertex
100
AcDb2dVertex
 10
7.667741351657418
 20
-21.34024641248917
 30
0.0
  0
VERTEX
  5
243
330
23A
100
AcDbEntity
  8
Layer 1
 62
   250
420
  2301728
370
    35
100
AcDbVertex
100
AcDb2dVertex
 10
7.819315380520266
 20
-21.34024641248917
 30
0.0
  0
VERTEX
  5
244
330
23A
100
AcDbEntity
  8
Layer 1
 62
   250
420
  2301728
370
    35
100
AcDbVertex
100
AcDb2dVertex
 10
7.819315380520266
 20
-21.73394690619569
 30
0.0
  0
VERTEX
  5
245
330
23A
100
AcDbEntity
  8
Layer 1
 62
   250
420
  2301728
370
    35
100
AcDbVertex
100
AcDb2dVertex
 10
7.667741351657418
 20
-21.73394690619569
 30
0.0
  0
VERTEX
  5
246
330
23A
100
AcDbEntity
  8
Layer 1
 62
   250
420
  2301728
370
    35
100
AcDbVertex
100
AcDb2dVertex
 10
7.667741351657418
 20
-22.12764824761292
 30
0.0
  0
VERTEX
  5
247
330
23A
100
AcDbEntity
  8
Layer 1
 62
   250
420
  2301728
370
    35
100
AcDbVertex
100
AcDb2dVertex
 10
7.667741351657418
 20
-22.12764824761292
 30
0.0
  0
VERTEX
  5
248
330
23A
100
AcDbEntity
  8
Layer 1
 62
   250
420
  2301728
370
    35
100
AcDbVertex
100
AcDb2dVertex
 10
7.667741351657418
 20
-22.27922312418625
 30
0.0
  0
VERTEX
  5
249
330
23A
100
AcDbEntity
  8
Layer 1
 62
   250
420
  2301728
370
    35
100
AcDbVertex
100
AcDb2dVertex
 10
8.394510693020266
 20
-22.27922312418625
 30
0.0
  0
VERTEX
  5
24A
330
23A
100
AcDbEntity
  8
Layer 1
 62
   250
420
  2301728
370
    35
100
AcDbVertex
100
AcDb2dVertex
 10
8.394510693020266
 20
-22.12764824761292
 30
0.0
  0
VERTEX
  5
24B
330
23A
100
AcDbEntity
  8
Layer 1
 62
   250
420
  2301728
370
    35
100
AcDbVertex
100
AcDb2dVertex
 10
9.121283425225126
 20
-22.12764824761292
 30
0.0
  0
VERTEX
  5
24C
330
23A
100
AcDbEntity
  8
Layer 1
 62
   250
420
  2301728
370
    35
100
AcDbVertex
100
AcDb2dVertex
 10
9.121283425225126
 20
-22.27922312418625
 30
0.0
  0
VERTEX
  5
24D
330
23A
100
AcDbEntity
  8
Layer 1
 62
   250
420
  2301728
370
    35
100
AcDbVertex
100
AcDb2dVertex
 10
9.848056157429987
 20
-22.27922312418625
 30
0.0
  0
VERTEX
  5
24E
330
23A
100
AcDbEntity
  8
Layer 1
 62
   250
420
  2301728
370
    35
100
AcDbVertex
100
AcDb2dVertex
 10
9.848056157429987
 20
-22.12764824761292
 30
0.0
  0
VERTEX
  5
24F
330
23A
100
AcDbEntity
  8
Layer 1
 62
   250
420
  2301728
370
    35
100
AcDbVertex
100
AcDb2dVertex
 10
10.57482549879284
 20
-22.12764824761292
 30
0.0
  0
VERTEX
  5
250
330
23A
100
AcDbEntity
  8
Layer 1
 62
   250
420
  2301728
370
    35
100
AcDbVertex
100
AcDb2dVertex
 10
10.57482549879284
 20
-22.27922312418625
 30
0.0
  0
VERTEX
  5
251
330
23A
100
AcDbEntity
  8
Layer 1
 62
   250
420
  2301728
370
    35
100
AcDbVertex
100
AcDb2dVertex
 10
11.3015982309977
 20
-22.27922312418625
 30
0.0
  0
VERTEX
  5
252
330
23A
100
AcDbEntity
  8
Layer 1
 62
   250
420
  2301728
370
    35
100
AcDbVertex
100
AcDb2dVertex
 10
11.3015982309977
 20
-22.12764824761292
 30
0.0
  0
VERTEX
  5
253
330
23A
100
AcDbEntity
  8
Layer 1
 62
   250
420
  2301728
370
    35
100
AcDbVertex
100
AcDb2dVertex
 10
11.3015982309977
 20
-22.12764824761292
 30
0.0
  0
VERTEX
  5
254
330
23A
100
AcDbEntity
  8
Layer 1
 62
   250
420
  2301728
370
    35
100
AcDbVertex
100
AcDb2dVertex
 10
11.3015982309977
 20
-21.73394775390625
 30
0.0
  0
VERTEX
  5
255
330
23A
100
AcDbEntity
  8
Layer 1
 62
   250
420
  2301728
370
    35
100
AcDbVertex
100
AcDb2dVertex
 10
11.15002420213485
 20
-21.73394775390625
 30
0.0
  0
VERTEX
  5
256
330
23A
100
AcDbEntity
  8
Layer 1
 62
   250
420
  2301728
370
    35
100
AcDbVertex
100
AcDb2dVertex
 10
11.15002420213485
 20
-21.34024641248917
 30
0.0
  0
VERTEX
  5
257
330
23A
100
AcDbEntity
  8
Layer 1
 62
   250
420
  2301728
370
    35
100
AcDbVertex
100
AcDb2dVertex
 10
11.3015982309977
 20
-21.34024641248917
 30
0.0
  0
VERTEX
  5
258
330
23A
100
AcDbEntity
  8
Layer 1
 62
   250
420
  2301728
370
    35
100
AcDbVertex
100
AcDb2dVertex
 10
11.3015982309977
 20
-20.9465459187825
 30
0.0
  0
VERTEX
  5
259
330
23A
100
AcDbEntity
  8
Layer 1
 62
   250
420
  2301728
370
    35
100
AcDbVertex
100
AcDb2dVertex
 10
11.15002420213485
 20
-20.9465459187825
 30
0.0
  0
VERTEX
  5
25A
330
23A
100
AcDbEntity
  8
Layer 1
 62
   250
420
  2301728
370
    35
100
AcDbVertex
100
AcDb2dVertex
 10
11.15002420213485
 20
-20.55284542507598
 30
0.0
  0
VERTEX
  5
25B
330
23A
100
AcDbEntity
  8
Layer 1
 62
   250
420
  2301728
370
    35
100
AcDbVertex
100
AcDb2dVertex
 10
11.3015982309977
 20
-20.55284542507598
 30
0.0
  0
SEQEND
  5
25C
330
23A
100
AcDbEntity
  8
Layer 1
 62
   250
420
  2301728
370
    35
  0
POLYLINE
  5
25D
330
1F
100
AcDbEntity
  8
Layer 1
 62
   250
420
  2301728
370
    35
100
AcDb2dPolyline
 66
     1
 10
0.0
 20
0.0
 30
0.0
  0
VERTEX
  5
25E
330
25D
100
AcDbEntity
  8
Layer 1
 62
   250
420
  2301728
370
    35
100
AcDbVertex
100
AcDb2dVertex
 10
14.76927672492126
 20
-23.09932369656028
 30
0.0
  0
VERTEX
  5
25F
330
25D
100
AcDbEntity
  8
Layer 1
 62
   250
420
  2301728
370
    35
100
AcDbVertex
100
AcDb2dVertex
 10
14.76927672492126
 20
-22.7056223551432
 30
0.0
  0
VERTEX
  5
260
330
25D
100
AcDbEntity
  8
Layer 1
 62
   250
420
  2301728
370
    35
100
AcDbVertex
100
AcDb2dVertex
 10
14.61770269605847
 20
-22.7056223551432
 30
0.0
  0
VERTEX
  5
261
330
25D
100
AcDbEntity
  8
Layer 1
 62
   250
420
  2301728
370
    35
100
AcDbVertex
100
AcDb2dVertex
 10
14.61770269605847
 20
-22.31192186143666
 30
0.0
  0
VERTEX
  5
262
330
25D
100
AcDbEntity
  8
Layer 1
 62
   250
420
  2301728
370
    35
100
AcDbVertex
100
AcDb2dVertex
 10
11.47859679328068
 20
-22.31192186143666
 30
0.0
  0
VERTEX
  5
263
330
25D
100
AcDbEntity
  8
Layer 1
 62
   250
420
  2301728
370
    35
100
AcDbVertex
100
AcDb2dVertex
 10
11.47859679328068
 20
-22.70562320285376
 30
0.0
  0
VERTEX
  5
264
330
25D
100
AcDbEntity
  8
Layer 1
 62
   250
420
  2301728
370
    35
100
AcDbVertex
100
AcDb2dVertex
 10
11.32702106899683
 20
-22.70562320285376
 30
0.0
  0
VERTEX
  5
265
330
25D
100
AcDbEntity
  8
Layer 1
 62
   250
420
  2301728
370
    35
100
AcDbVertex
100
AcDb2dVertex
 10
11.32702106899683
 20
-23.09932369656028
 30
0.0
  0
VERTEX
  5
266
330
25D
100
AcDbEntity
  8
Layer 1
 62
   250
420
  2301728
370
    35
100
AcDbVertex
100
AcDb2dVertex
 10
11.47859679328068
 20
-23.09932369656028
 30
0.0
  0
VERTEX
  5
267
330
25D
100
AcDbEntity
  8
Layer 1
 62
   250
420
  2301728
370
    35
100
AcDbVertex
100
AcDb2dVertex
 10
11.47859679328068
 20
-23.49302419026695
 30
0.0
  0
VERTEX
  5
268
330
25D
100
AcDbEntity
  8
Layer 1
 62
   250
420
  2301728
370
    35
100
AcDbVertex
100
AcDb2dVertex
 10
11.32702106899683
 20
-23.49302419026695
 30
0.0
  0
VERTEX
  5
269
330
25D
100
AcDbEntity
  8
Layer 1
 62
   250
420
  2301728
370
    35
100
AcDbVertex
100
AcDb2dVertex
 10
11.32702106899683
 20
-23.88672468397347
 30
0.0
  0
VERTEX
  5
26A
330
25D
100
AcDbEntity
  8
Layer 1
 62
   250
420
  2301728
370
    35
100
AcDbVertex
100
AcDb2dVertex
 10
11.47859679328068
 20
-23.88672468397347
 30
0.0
  0
VERTEX
  5
26B
330
25D
100
AcDbEntity
  8
Layer 1
 62
   250
420
  2301728
370
    35
100
AcDbVertex
100
AcDb2dVertex
 10
11.47859679328068
 20
-24.2804260253907
 30
0.0
  0
VERTEX
  5
26C
330
25D
100
AcDbEntity
  8
Layer 1
 62
   250
420
  2301728
370
    35
100
AcDbVertex
100
AcDb2dVertex
 10
11.47859679328068
 20
-24.2804260253907
 30
0.0
  0
VERTEX
  5
26D
330
25D
100
AcDbEntity
  8
Layer 1
 62
   250
420
  2301728
370
    35
100
AcDbVertex
100
AcDb2dVertex
 10
11.47859679328068
 20
-24.43200090196402
 30
0.0
  0
VERTEX
  5
26E
330
25D
100
AcDbEntity
  8
Layer 1
 62
   250
420
  2301728
370
    35
100
AcDbVertex
100
AcDb2dVertex
 10
12.01547220018172
 20
-24.43200090196402
 30
0.0
  0
VERTEX
  5
26F
330
25D
100
AcDbEntity
  8
Layer 1
 62
   250
420
  2301728
370
    35
100
AcDbVertex
100
AcDb2dVertex
 10
12.01547220018172
 20
-24.2804260253907
 30
0.0
  0
VERTEX
  5
270
330
25D
100
AcDbEntity
  8
Layer 1
 62
   250
420
  2301728
370
    35
100
AcDbVertex
100
AcDb2dVertex
 10
12.70392333136662
 20
-24.2804260253907
 30
0.0
  0
VERTEX
  5
271
330
25D
100
AcDbEntity
  8
Layer 1
 62
   250
420
  2301728
370
    35
100
AcDbVertex
100
AcDb2dVertex
 10
12.70392333136662
 20
-24.43200090196402
 30
0.0
  0
VERTEX
  5
272
330
25D
100
AcDbEntity
  8
Layer 1
 62
   250
420
  2301728
370
    35
100
AcDbVertex
100
AcDb2dVertex
 10
13.39237446255152
 20
-24.43200090196402
 30
0.0
  0
VERTEX
  5
273
330
25D
100
AcDbEntity
  8
Layer 1
 62
   250
420
  2301728
370
    35
100
AcDbVertex
100
AcDb2dVertex
 10
13.39237446255152
 20
-24.2804260253907
 30
0.0
  0
VERTEX
  5
274
330
25D
100
AcDbEntity
  8
Layer 1
 62
   250
420
  2301728
370
    35
100
AcDbVertex
100
AcDb2dVertex
 10
14.08082728915737
 20
-24.2804260253907
 30
0.0
  0
VERTEX
  5
275
330
25D
100
AcDbEntity
  8
Layer 1
 62
   250
420
  2301728
370
    35
100
AcDbVertex
100
AcDb2dVertex
 10
14.08082728915737
 20
-24.43200090196402
 30
0.0
  0
VERTEX
  5
276
330
25D
100
AcDbEntity
  8
Layer 1
 62
   250
420
  2301728
370
    35
100
AcDbVertex
100
AcDb2dVertex
 10
14.61770269605847
 20
-24.43200090196402
 30
0.0
  0
VERTEX
  5
277
330
25D
100
AcDbEntity
  8
Layer 1
 62
   250
420
  2301728
370
    35
100
AcDbVertex
100
AcDb2dVertex
 10
14.61770269605847
 20
-24.2804260253907
 30
0.0
  0
VERTEX
  5
278
330
25D
100
AcDbEntity
  8
Layer 1
 62
   250
420
  2301728
370
    35
100
AcDbVertex
100
AcDb2dVertex
 10
14.61770269605847
 20
-23.88672468397347
 30
0.0
  0
VERTEX
  5
279
330
25D
100
AcDbEntity
  8
Layer 1
 62
   250
420
  2301728
370
    35
100
AcDbVertex
100
AcDb2dVertex
 10
14.76927672492126
 20
-23.88672468397347
 30
0.0
  0
VERTEX
  5
27A
330
25D
100
AcDbEntity
  8
Layer 1
 62
   250
420
  2301728
370
    35
100
AcDbVertex
100
AcDb2dVertex
 10
14.76927672492126
 20
-23.49302419026695
 30
0.0
  0
VERTEX
  5
27B
330
25D
100
AcDbEntity
  8
Layer 1
 62
   250
420
  2301728
370
    35
100
AcDbVertex
100
AcDb2dVertex
 10
14.61770269605847
 20
-23.49302419026695
 30
0.0
  0
VERTEX
  5
27C
330
25D
100
AcDbEntity
  8
Layer 1
 62
   250
420
  2301728
370
    35
100
AcDbVertex
100
AcDb2dVertex
 10
14.61770269605847
 20
-23.09932369656028
 30
0.0
  0
VERTEX
  5
27D
330
25D
100
AcDbEntity
  8
Layer 1
 62
   250
420
  2301728
370
    35
100
AcDbVertex
100
AcDb2dVertex
 10
14.76927672492126
 20
-23.09932369656028
 30
0.0
  0
SEQEND
  5
27E
330
25D
100
AcDbEntity
  8
Layer 1
 62
   250
420
  2301728
370
    35
  0
POLYLINE
  5
27F
330
1F
100
AcDbEntity
  8
Layer 1
 62
   250
420
  2301728
370
    35
100
AcDb2dPolyline
 66
     1
 10
0.0
 20
0.0
 30
0.0
  0
VERTEX
  5
280
330
27F
100
AcDbEntity
  8
Layer 1
 62
   250
420
  2301728
370
    35
100
AcDbVertex
100
AcDb2dVertex
 10
11.3015982309977
 20
-22.70562320285376
 30
0.0
  0
VERTEX
  5
281
330
27F
100
AcDbEntity
  8
Layer 1
 62
   250
420
  2301728
370
    35
100
AcDbVertex
100
AcDb2dVertex
 10
11.3015982309977
 20
-22.31192186143666
 30
0.0
  0
VERTEX
  5
282
330
27F
100
AcDbEntity
  8
Layer 1
 62
   250
420
  2301728
370
    35
100
AcDbVertex
100
AcDb2dVertex
 10
7.667741351657418
 20
-22.31192186143666
 30
0.0
  0
VERTEX
  5
283
330
27F
100
AcDbEntity
  8
Layer 1
 62
   250
420
  2301728
370
    35
100
AcDbVertex
100
AcDb2dVertex
 10
7.667741351657418
 20
-22.7056223551432
 30
0.0
  0
VERTEX
  5
284
330
27F
100
AcDbEntity
  8
Layer 1
 62
   250
420
  2301728
370
    35
100
AcDbVertex
100
AcDb2dVertex
 10
7.819315380520266
 20
-22.7056223551432
 30
0.0
  0
VERTEX
  5
285
330
27F
100
AcDbEntity
  8
Layer 1
 62
   250
420
  2301728
370
    35
100
AcDbVertex
100
AcDb2dVertex
 10
7.819315380520266
 20
-23.09932369656028
 30
0.0
  0
VERTEX
  5
286
330
27F
100
AcDbEntity
  8
Layer 1
 62
   250
420
  2301728
370
    35
100
AcDbVertex
100
AcDb2dVertex
 10
7.667741351657418
 20
-23.09932369656028
 30
0.0
  0
VERTEX
  5
287
330
27F
100
AcDbEntity
  8
Layer 1
 62
   250
420
  2301728
370
    35
100
AcDbVertex
100
AcDb2dVertex
 10
7.667741351657418
 20
-23.49302419026695
 30
0.0
  0
VERTEX
  5
288
330
27F
100
AcDbEntity
  8
Layer 1
 62
   250
420
  2301728
370
    35
100
AcDbVertex
100
AcDb2dVertex
 10
7.819315380520266
 20
-23.49302419026695
 30
0.0
  0
VERTEX
  5
289
330
27F
100
AcDbEntity
  8
Layer 1
 62
   250
420
  2301728
370
    35
100
AcDbVertex
100
AcDb2dVertex
 10
7.819315380520266
 20
-23.88672468397347
 30
0.0
  0
VERTEX
  5
28A
330
27F
100
AcDbEntity
  8
Layer 1
 62
   250
420
  2301728
370
    35
100
AcDbVertex
100
AcDb2dVertex
 10
7.667741351657418
 20
-23.88672468397347
 30
0.0
  0
VERTEX
  5
28B
330
27F
100
AcDbEntity
  8
Layer 1
 62
   250
420
  2301728
370
    35
100
AcDbVertex
100
AcDb2dVertex
 10
7.667741351657418
 20
-24.2804260253907
 30
0.0
  0
VERTEX
  5
28C
330
27F
100
AcDbEntity
  8
Layer 1
 62
   250
420
  2301728
370
    35
100
AcDbVertex
100
AcDb2dVertex
 10
7.667741351657418
 20
-24.2804260253907
 30
0.0
  0
VERTEX
  5
28D
330
27F
100
AcDbEntity
  8
Layer 1
 62
   250
420
  2301728
370
    35
100
AcDbVertex
100
AcDb2dVertex
 10
7.667741351657418
 20
-24.43200090196402
 30
0.0
  0
VERTEX
  5
28E
330
27F
100
AcDbEntity
  8
Layer 1
 62
   250
420
  2301728
370
    35
100
AcDbVertex
100
AcDb2dVertex
 10
8.394510693020266
 20
-24.43200090196402
 30
0.0
  0
VERTEX
  5
28F
330
27F
100
AcDbEntity
  8
Layer 1
 62
   250
420
  2301728
370
    35
100
AcDbVertex
100
AcDb2dVertex
 10
8.394510693020266
 20
-24.2804260253907
 30
0.0
  0
VERTEX
  5
290
330
27F
100
AcDbEntity
  8
Layer 1
 62
   250
420
  2301728
370
    35
100
AcDbVertex
100
AcDb2dVertex
 10
9.121283425225126
 20
-24.2804260253907
 30
0.0
  0
VERTEX
  5
291
330
27F
100
AcDbEntity
  8
Layer 1
 62
   250
420
  2301728
370
    35
100
AcDbVertex
100
AcDb2dVertex
 10
9.121283425225126
 20
-24.43200090196402
 30
0.0
  0
VERTEX
  5
292
330
27F
100
AcDbEntity
  8
Layer 1
 62
   250
420
  2301728
370
    35
100
AcDbVertex
100
AcDb2dVertex
 10
9.848056157429987
 20
-24.43200090196402
 30
0.0
  0
VERTEX
  5
293
330
27F
100
AcDbEntity
  8
Layer 1
 62
   250
420
  2301728
370
    35
100
AcDbVertex
100
AcDb2dVertex
 10
9.848056157429987
 20
-24.2804260253907
 30
0.0
  0
VERTEX
  5
294
330
27F
100
AcDbEntity
  8
Layer 1
 62
   250
420
  2301728
370
    35
100
AcDbVertex
100
AcDb2dVertex
 10
10.57482549879284
 20
-24.2804260253907
 30
0.0
  0
VERTEX
  5
295
330
27F
100
AcDbEntity
  8
Layer 1
 62
   250
420
  2301728
370
    35
100
AcDbVertex
100
AcDb2dVertex
 10
10.57482549879284
 20
-24.43200090196402
 30
0.0
  0
VERTEX
  5
296
330
27F
100
AcDbEntity
  8
Layer 1
 62
   250
420
  2301728
370
    35
100
AcDbVertex
100
AcDb2dVertex
 10
11.3015982309977
 20
-24.43200090196402
 30
0.0
  0
VERTEX
  5
297
330
27F
100
AcDbEntity
  8
Layer 1
 62
   250
420
  2301728
370
    35
100
AcDbVertex
100
AcDb2dVertex
 10
11.3015982309977
 20
-24.2804260253907
 30
0.0
  0
VERTEX
  5
298
330
27F
100
AcDbEntity
  8
Layer 1
 62
   250
420
  2301728
370
    35
100
AcDbVertex
100
AcDb2dVertex
 10
11.3015982309977
 20
-24.2804260253907
 30
0.0
  0
VERTEX
  5
299
330
27F
100
AcDbEntity
  8
Layer 1
 62
   250
420
  2301728
370
    35
100
AcDbVertex
100
AcDb2dVertex
 10
11.3015982309977
 20
-23.88672553168403
 30
0.0
  0
VERTEX
  5
29A
330
27F
100
AcDbEntity
  8
Layer 1
 62
   250
420
  2301728
370
    35
100
AcDbVertex
100
AcDb2dVertex
 10
11.15002420213485
 20
-23.88672553168403
 30
0.0
  0
VERTEX
  5
29B
330
27F
100
AcDbEntity
  8
Layer 1
 62
   250
420
  2301728
370
    35
100
AcDbVertex
100
AcDb2dVertex
 10
11.15002420213485
 20
-23.49302419026695
 30
0.0
  0
VERTEX
  5
29C
330
27F
100
AcDbEntity
  8
Layer 1
 62
   250
420
  2301728
370
    35
100
AcDbVertex
100
AcDb2dVertex
 10
11.3015982309977
 20
-23.49302419026695
 30
0.0
  0
VERTEX
  5
29D
330
27F
100
AcDbEntity
  8
Layer 1
 62
   250
420
  2301728
370
    35
100
AcDbVertex
100
AcDb2dVertex
 10
11.3015982309977
 20
-23.09932369656028
 30
0.0
  0
VERTEX
  5
29E
330
27F
100
AcDbEntity
  8
Layer 1
 62
   250
420
  2301728
370
    35
100
AcDbVertex
100
AcDb2dVertex
 10
11.15002420213485
 20
-23.09932369656028
 30
0.0
  0
VERTEX
  5
29F
330
27F
100
AcDbEntity
  8
Layer 1
 62
   250
420
  2301728
370
    35
100
AcDbVertex
100
AcDb2dVertex
 10
11.15002420213485
 20
-22.70562320285376
 30
0.0
  0
VERTEX
  5
2A0
330
27F
100
AcDbEntity
  8
Layer 1
 62
   250
420
  2301728
370
    35
100
AcDbVertex
100
AcDb2dVertex
 10
11.3015982309977
 20
-22.70562320285376
 30
0.0
  0
SEQEND
  5
2A1
330
27F
100
AcDbEntity
  8
Layer 1
 62
   250
420
  2301728
370
    35
  0
POLYLINE
  5
2A2
330
1F
100
AcDbEntity
  8
Layer 1
 62
   250
420
  2301728
370
    35
100
AcDb2dPolyline
 66
     1
 10
0.0
 20
0.0
 30
0.0
  0
VERTEX
  5
2A3
330
2A2
100
AcDbEntity
  8
Layer 1
 62
   250
420
  2301728
370
    35
100
AcDbVertex
100
AcDb2dVertex
 10
14.76927672492126
 20
-25.25210147433805
 30
0.0
  0
VERTEX
  5
2A4
330
2A2
100
AcDbEntity
  8
Layer 1
 62
   250
420
  2301728
370
    35
100
AcDbVertex
100
AcDb2dVertex
 10
14.76927672492126
 20
-24.85840013292098
 30
0.0
  0
VERTEX
  5
2A5
330
2A2
100
AcDbEntity
  8
Layer 1
 62
   250
420
  2301728
370
    35
100
AcDbVertex
100
AcDb2dVertex
 10
14.61770269605847
 20
-24.85840013292098
 30
0.0
  0
VERTEX
  5
2A6
330
2A2
100
AcDbEntity
  8
Layer 1
 62
   250
420
  2301728
370
    35
100
AcDbVertex
100
AcDb2dVertex
 10
14.61770269605847
 20
-24.46469963921443
 30
0.0
  0
VERTEX
  5
2A7
330
2A2
100
AcDbEntity
  8
Layer 1
 62
   250
420
  2301728
370
    35
100
AcDbVertex
100
AcDb2dVertex
 10
11.47859679328068
 20
-24.46469963921443
 30
0.0
  0
VERTEX
  5
2A8
330
2A2
100
AcDbEntity
  8
Layer 1
 62
   250
420
  2301728
370
    35
100
AcDbVertex
100
AcDb2dVertex
 10
11.47859679328068
 20
-24.85840098063153
 30
0.0
  0
VERTEX
  5
2A9
330
2A2
100
AcDbEntity
  8
Layer 1
 62
   250
420
  2301728
370
    35
100
AcDbVertex
100
AcDb2dVertex
 10
11.32702106899683
 20
-24.85840098063153
 30
0.0
  0
VERTEX
  5
2AA
330
2A2
100
AcDbEntity
  8
Layer 1
 62
   250
420
  2301728
370
    35
100
AcDbVertex
100
AcDb2dVertex
 10
11.32702106899683
 20
-25.25210147433805
 30
0.0
  0
VERTEX
  5
2AB
330
2A2
100
AcDbEntity
  8
Layer 1
 62
   250
420
  2301728
370
    35
100
AcDbVertex
100
AcDb2dVertex
 10
11.47859679328068
 20
-25.25210147433805
 30
0.0
  0
VERTEX
  5
2AC
330
2A2
100
AcDbEntity
  8
Layer 1
 62
   250
420
  2301728
370
    35
100
AcDbVertex
100
AcDb2dVertex
 10
11.47859679328068
 20
-25.64580196804473
 30
0.0
  0
VERTEX
  5
2AD
330
2A2
100
AcDbEntity
  8
Layer 1
 62
   250
420
  2301728
370
    35
100
AcDbVertex
100
AcDb2dVertex
 10
11.32702106899683
 20
-25.64580196804473
 30
0.0
  0
VERTEX
  5
2AE
330
2A2
100
AcDbEntity
  8
Layer 1
 62
   250
420
  2301728
370
    35
100
AcDbVertex
100
AcDb2dVertex
 10
11.32702106899683
 20
-26.03950246175125
 30
0.0
  0
VERTEX
  5
2AF
330
2A2
100
AcDbEntity
  8
Layer 1
 62
   250
420
  2301728
370
    35
100
AcDbVertex
100
AcDb2dVertex
 10
11.47859679328068
 20
-26.03950246175125
 30
0.0
  0
VERTEX
  5
2B0
330
2A2
100
AcDbEntity
  8
Layer 1
 62
   250
420
  2301728
370
    35
100
AcDbVertex
100
AcDb2dVertex
 10
11.47859679328068
 20
-26.43320380316848
 30
0.0
  0
VERTEX
  5
2B1
330
2A2
100
AcDbEntity
  8
Layer 1
 62
   250
420
  2301728
370
    35
100
AcDbVertex
100
AcDb2dVertex
 10
11.47859679328068
 20
-26.43320380316848
 30
0.0
  0
VERTEX
  5
2B2
330
2A2
100
AcDbEntity
  8
Layer 1
 62
   250
420
  2301728
370
    35
100
AcDbVertex
100
AcDb2dVertex
 10
11.47859679328068
 20
-26.5847786797418
 30
0.0
  0
VERTEX
  5
2B3
330
2A2
100
AcDbEntity
  8
Layer 1
 62
   250
420
  2301728
370
    35
100
AcDbVertex
100
AcDb2dVertex
 10
12.01547220018172
 20
-26.5847786797418
 30
0.0
  0
VERTEX
  5
2B4
330
2A2
100
AcDbEntity
  8
Layer 1
 62
   250
420
  2301728
370
    35
100
AcDbVertex
100
AcDb2dVertex
 10
12.01547220018172
 20
-26.43320380316848
 30
0.0
  0
VERTEX
  5
2B5
330
2A2
100
AcDbEntity
  8
Layer 1
 62
   250
420
  2301728
370
    35
100
AcDbVertex
100
AcDb2dVertex
 10
12.70392333136662
 20
-26.43320380316848
 30
0.0
  0
VERTEX
  5
2B6
330
2A2
100
AcDbEntity
  8
Layer 1
 62
   250
420
  2301728
370
    35
100
AcDbVertex
100
AcDb2dVertex
 10
12.70392333136662
 20
-26.5847786797418
 30
0.0
  0
VERTEX
  5
2B7
330
2A2
100
AcDbEntity
  8
Layer 1
 62
   250
420
  2301728
370
    35
100
AcDbVertex
100
AcDb2dVertex
 10
13.39237446255152
 20
-26.5847786797418
 30
0.0
  0
VERTEX
  5
2B8
330
2A2
100
AcDbEntity
  8
Layer 1
 62
   250
420
  2301728
370
    35
100
AcDbVertex
100
AcDb2dVertex
 10
13.39237446255152
 20
-26.43320380316848
 30
0.0
  0
VERTEX
  5
2B9
330
2A2
100
AcDbEntity
  8
Layer 1
 62
   250
420
  2301728
370
    35
100
AcDbVertex
100
AcDb2dVertex
 10
14.08082728915737
 20
-26.43320380316848
 30
0.0
  0
VERTEX
  5
2BA
330
2A2
100
AcDbEntity
  8
Layer 1
 62
   250
420
  2301728
370
    35
100
AcDbVertex
100
AcDb2dVertex
 10
14.08082728915737
 20
-26.5847786797418
 30
0.0
  0
VERTEX
  5
2BB
330
2A2
100
AcDbEntity
  8
Layer 1
 62
   250
420
  2301728
370
    35
100
AcDbVertex
100
AcDb2dVertex
 10
14.61770269605847
 20
-26.5847786797418
 30
0.0
  0
VERTEX
  5
2BC
330
2A2
100
AcDbEntity
  8
Layer 1
 62
   250
420
  2301728
370
    35
100
AcDbVertex
100
AcDb2dVertex
 10
14.61770269605847
 20
-26.43320380316848
 30
0.0
  0
VERTEX
  5
2BD
330
2A2
100
AcDbEntity
  8
Layer 1
 62
   250
420
  2301728
370
    35
100
AcDbVertex
100
AcDb2dVertex
 10
14.61770269605847
 20
-26.03950246175125
 30
0.0
  0
VERTEX
  5
2BE
330
2A2
100
AcDbEntity
  8
Layer 1
 62
   250
420
  2301728
370
    35
100
AcDbVertex
100
AcDb2dVertex
 10
14.76927672492126
 20
-26.03950246175125
 30
0.0
  0
VERTEX
  5
2BF
330
2A2
100
AcDbEntity
  8
Layer 1
 62
   250
420
  2301728
370
    35
100
AcDbVertex
100
AcDb2dVertex
 10
14.76927672492126
 20
-25.64580196804473
 30
0.0
  0
VERTEX
  5
2C0
330
2A2
100
AcDbEntity
  8
Layer 1
 62
   250
420
  2301728
370
    35
100
AcDbVertex
100
AcDb2dVertex
 10
14.61770269605847
 20
-25.64580196804473
 30
0.0
  0
VERTEX
  5
2C1
330
2A2
100
AcDbEntity
  8
Layer 1
 62
   250
420
  2301728
370
    35
100
AcDbVertex
100
AcDb2dVertex
 10
14.61770269605847
 20
-25.25210147433805
 30
0.0
  0
VERTEX
  5
2C2
330
2A2
100
AcDbEntity
  8
Layer 1
 62
   250
420
  2301728
370
    35
100
AcDbVertex
100
AcDb2dVertex
 10
14.76927672492126
 20
-25.25210147433805
 30
0.0
  0
SEQEND
  5
2C3
330
2A2
100
AcDbEntity
  8
Layer 1
 62
   250
420
  2301728
370
    35
  0
POLYLINE
  5
2C4
330
1F
100
AcDbEntity
  8
Layer 1
 62
   250
420
  2301728
370
    35
100
AcDb2dPolyline
 66
     1
 10
0.0
 20
0.0
 30
0.0
  0
VERTEX
  5
2C5
330
2C4
100
AcDbEntity
  8
Layer 1
 62
   250
420
  2301728
370
    35
100
AcDbVertex
100
AcDb2dVertex
 10
11.3015982309977
 20
-24.85840098063153
 30
0.0
  0
VERTEX
  5
2C6
330
2C4
100
AcDbEntity
  8
Layer 1
 62
   250
420
  2301728
370
    35
100
AcDbVertex
100
AcDb2dVertex
 10
11.3015982309977
 20
-24.46469963921443
 30
0.0
  0
VERTEX
  5
2C7
330
2C4
100
AcDbEntity
  8
Layer 1
 62
   250
420
  2301728
370
    35
100
AcDbVertex
100
AcDb2dVertex
 10
7.667741351657418
 20
-24.46469963921443
 30
0.0
  0
VERTEX
  5
2C8
330
2C4
100
AcDbEntity
  8
Layer 1
 62
   250
420
  2301728
370
    35
100
AcDbVertex
100
AcDb2dVertex
 10
7.667741351657418
 20
-24.85840013292098
 30
0.0
  0
VERTEX
  5
2C9
330
2C4
100
AcDbEntity
  8
Layer 1
 62
   250
420
  2301728
370
    35
100
AcDbVertex
100
AcDb2dVertex
 10
7.819315380520266
 20
-24.85840013292098
 30
0.0
  0
VERTEX
  5
2CA
330
2C4
100
AcDbEntity
  8
Layer 1
 62
   250
420
  2301728
370
    35
100
AcDbVertex
100
AcDb2dVertex
 10
7.819315380520266
 20
-25.25210147433805
 30
0.0
  0
VERTEX
  5
2CB
330
2C4
100
AcDbEntity
  8
Layer 1
 62
   250
420
  2301728
370
    35
100
AcDbVertex
100
AcDb2dVertex
 10
7.667741351657418
 20
-25.25210147433805
 30
0.0
  0
VERTEX
  5
2CC
330
2C4
100
AcDbEntity
  8
Layer 1
 62
   250
420
  2301728
370
    35
100
AcDbVertex
100
AcDb2dVertex
 10
7.667741351657418
 20
-25.64580196804473
 30
0.0
  0
VERTEX
  5
2CD
330
2C4
100
AcDbEntity
  8
Layer 1
 62
   250
420
  2301728
370
    35
100
AcDbVertex
100
AcDb2dVertex
 10
7.819315380520266
 20
-25.64580196804473
 30
0.0
  0
VERTEX
  5
2CE
330
2C4
100
AcDbEntity
  8
Layer 1
 62
   250
420
  2301728
370
    35
100
AcDbVertex
100
AcDb2dVertex
 10
7.819315380520266
 20
-26.03950246175125
 30
0.0
  0
VERTEX
  5
2CF
330
2C4
100
AcDbEntity
  8
Layer 1
 62
   250
420
  2301728
370
    35
100
AcDbVertex
100
AcDb2dVertex
 10
7.667741351657418
 20
-26.03950246175125
 30
0.0
  0
VERTEX
  5
2D0
330
2C4
100
AcDbEntity
  8
Layer 1
 62
   250
420
  2301728
370
    35
100
AcDbVertex
100
AcDb2dVertex
 10
7.667741351657418
 20
-26.43320380316848
 30
0.0
  0
VERTEX
  5
2D1
330
2C4
100
AcDbEntity
  8
Layer 1
 62
   250
420
  2301728
370
    35
100
AcDbVertex
100
AcDb2dVertex
 10
7.667741351657418
 20
-26.43320380316848
 30
0.0
  0
VERTEX
  5
2D2
330
2C4
100
AcDbEntity
  8
Layer 1
 62
   250
420
  2301728
370
    35
100
AcDbVertex
100
AcDb2dVertex
 10
7.667741351657418
 20
-26.5847786797418
 30
0.0
  0
VERTEX
  5
2D3
330
2C4
100
AcDbEntity
  8
Layer 1
 62
   250
420
  2301728
370
    35
100
AcDbVertex
100
AcDb2dVertex
 10
8.394510693020266
 20
-26.5847786797418
 30
0.0
  0
VERTEX
  5
2D4
330
2C4
100
AcDbEntity
  8
Layer 1
 62
   250
420
  2301728
370
    35
100
AcDbVertex
100
AcDb2dVertex
 10
8.394510693020266
 20
-26.43320380316848
 30
0.0
  0
VERTEX
  5
2D5
330
2C4
100
AcDbEntity
  8
Layer 1
 62
   250
420
  2301728
370
    35
100
AcDbVertex
100
AcDb2dVertex
 10
9.121283425225126
 20
-26.43320380316848
 30
0.0
  0
VERTEX
  5
2D6
330
2C4
100
AcDbEntity
  8
Layer 1
 62
   250
420
  2301728
370
    35
100
AcDbVertex
100
AcDb2dVertex
 10
9.121283425225126
 20
-26.5847786797418
 30
0.0
  0
VERTEX
  5
2D7
330
2C4
100
AcDbEntity
  8
Layer 1
 62
   250
420
  2301728
370
    35
100
AcDbVertex
100
AcDb2dVertex
 10
9.848056157429987
 20
-26.5847786797418
 30
0.0
  0
VERTEX
  5
2D8
330
2C4
100
AcDbEntity
  8
Layer 1
 62
   250
420
  2301728
370
    35
100
AcDbVertex
100
AcDb2dVertex
 10
9.848056157429987
 20
-26.43320380316848
 30
0.0
  0
VERTEX
  5
2D9
330
2C4
100
AcDbEntity
  8
Layer 1
 62
   250
420
  2301728
370
    35
100
AcDbVertex
100
AcDb2dVertex
 10
10.57482549879284
 20
-26.43320380316848
 30
0.0
  0
VERTEX
  5
2DA
330
2C4
100
AcDbEntity
  8
Layer 1
 62
   250
420
  2301728
370
    35
100
AcDbVertex
100
AcDb2dVertex
 10
10.57482549879284
 20
-26.5847786797418
 30
0.0
  0
VERTEX
  5
2DB
330
2C4
100
AcDbEntity
  8
Layer 1
 62
   250
420
  2301728
370
    35
100
AcDbVertex
100
AcDb2dVertex
 10
11.3015982309977
 20
-26.5847786797418
 30
0.0
  0
VERTEX
  5
2DC
330
2C4
100
AcDbEntity
  8
Layer 1
 62
   250
420
  2301728
370
    35
100
AcDbVertex
100
AcDb2dVertex
 10
11.3015982309977
 20
-26.43320380316848
 30
0.0
  0
VERTEX
  5
2DD
330
2C4
100
AcDbEntity
  8
Layer 1
 62
   250
420
  2301728
370
    35
100
AcDbVertex
100
AcDb2dVertex
 10
11.3015982309977
 20
-26.43320380316848
 30
0.0
  0
VERTEX
  5
2DE
330
2C4
100
AcDbEntity
  8
Layer 1
 62
   250
420
  2301728
370
    35
100
AcDbVertex
100
AcDb2dVertex
 10
11.3015982309977
 20
-26.0395033094618
 30
0.0
  0
VERTEX
  5
2DF
330
2C4
100
AcDbEntity
  8
Layer 1
 62
   250
420
  2301728
370
    35
100
AcDbVertex
100
AcDb2dVertex
 10
11.15002420213485
 20
-26.0395033094618
 30
0.0
  0
VERTEX
  5
2E0
330
2C4
100
AcDbEntity
  8
Layer 1
 62
   250
420
  2301728
370
    35
100
AcDbVertex
100
AcDb2dVertex
 10
11.15002420213485
 20
-25.64580196804473
 30
0.0
  0
VERTEX
  5
2E1
330
2C4
100
AcDbEntity
  8
Layer 1
 62
   250
420
  2301728
370
    35
100
AcDbVertex
100
AcDb2dVertex
 10
11.3015982309977
 20
-25.64580196804473
 30
0.0
  0
VERTEX
  5
2E2
330
2C4
100
AcDbEntity
  8
Layer 1
 62
   250
420
  2301728
370
    35
100
AcDbVertex
100
AcDb2dVertex
 10
11.3015982309977
 20
-25.25210147433805
 30
0.0
  0
VERTEX
  5
2E3
330
2C4
100
AcDbEntity
  8
Layer 1
 62
   250
420
  2301728
370
    35
100
AcDbVertex
100
AcDb2dVertex
 10
11.15002420213485
 20
-25.25210147433805
 30
0.0
  0
VERTEX
  5
2E4
330
2C4
100
AcDbEntity
  8
Layer 1
 62
   250
420
  2301728
370
    35
100
AcDbVertex
100
AcDb2dVertex
 10
11.15002420213485
 20
-24.85840098063153
 30
0.0
  0
VERTEX
  5
2E5
330
2C4
100
AcDbEntity
  8
Layer 1
 62
   250
420
  2301728
370
    35
100
AcDbVertex
100
AcDb2dVertex
 10
11.3015982309977
 20
-24.85840098063153
 30
0.0
  0
SEQEND
  5
2E6
330
2C4
100
AcDbEntity
  8
Layer 1
 62
   250
420
  2301728
370
    35
  0
POLYLINE
  5
2E7
330
1F
100
AcDbEntity
  8
Layer 1
 62
   250
420
  2301728
370
    35
100
AcDb2dPolyline
 66
     1
 10
0.0
 20
0.0
 30
0.0
  0
VERTEX
  5
2E8
330
2E7
100
AcDbEntity
  8
Layer 1
 62
   250
420
  2301728
370
    35
100
AcDbVertex
100
AcDb2dVertex
 10
7.492702696058459
 20
-19.43583001030818
 30
0.0
  0
VERTEX
  5
2E9
330
2E7
100
AcDbEntity
  8
Layer 1
 62
   250
420
  2301728
370
    35
100
AcDbVertex
100
AcDb2dVertex
 10
6.955827289157418
 20
-19.43583001030818
 30
0.0
  0
VERTEX
  5
2EA
330
2E7
100
AcDbEntity
  8
Layer 1
 62
   250
420
  2301728
370
    35
100
AcDbVertex
100
AcDb2dVertex
 10
6.955827289157418
 20
-19.28425513373486
 30
0.0
  0
VERTEX
  5
2EB
330
2E7
100
AcDbEntity
  8
Layer 1
 62
   250
420
  2301728
370
    35
100
AcDbVertex
100
AcDb2dVertex
 10
6.267374462551516
 20
-19.28425513373486
 30
0.0
  0
VERTEX
  5
2EC
330
2E7
100
AcDbEntity
  8
Layer 1
 62
   250
420
  2301728
370
    35
100
AcDbVertex
100
AcDb2dVertex
 10
6.267374462551516
 20
-19.43583001030818
 30
0.0
  0
VERTEX
  5
2ED
330
2E7
100
AcDbEntity
  8
Layer 1
 62
   250
420
  2301728
370
    35
100
AcDbVertex
100
AcDb2dVertex
 10
5.578923331366619
 20
-19.43583001030818
 30
0.0
  0
VERTEX
  5
2EE
330
2E7
100
AcDbEntity
  8
Layer 1
 62
   250
420
  2301728
370
    35
100
AcDbVertex
100
AcDb2dVertex
 10
5.578923331366619
 20
-19.28425513373486
 30
0.0
  0
VERTEX
  5
2EF
330
2E7
100
AcDbEntity
  8
Layer 1
 62
   250
420
  2301728
370
    35
100
AcDbVertex
100
AcDb2dVertex
 10
4.890472200181724
 20
-19.28425513373486
 30
0.0
  0
VERTEX
  5
2F0
330
2E7
100
AcDbEntity
  8
Layer 1
 62
   250
420
  2301728
370
    35
100
AcDbVertex
100
AcDb2dVertex
 10
4.890472200181724
 20
-19.43583001030818
 30
0.0
  0
VERTEX
  5
2F1
330
2E7
100
AcDbEntity
  8
Layer 1
 62
   250
420
  2301728
370
    35
100
AcDbVertex
100
AcDb2dVertex
 10
4.353596793280682
 20
-19.43583001030818
 30
0.0
  0
VERTEX
  5
2F2
330
2E7
100
AcDbEntity
  8
Layer 1
 62
   250
420
  2301728
370
    35
100
AcDbVertex
100
AcDb2dVertex
 10
4.353596793280682
 20
-20.01102701822916
 30
0.0
  0
VERTEX
  5
2F3
330
2E7
100
AcDbEntity
  8
Layer 1
 62
   250
420
  2301728
370
    35
100
AcDbVertex
100
AcDb2dVertex
 10
4.202021068996828
 20
-20.01102701822916
 30
0.0
  0
VERTEX
  5
2F4
330
2E7
100
AcDbEntity
  8
Layer 1
 62
   250
420
  2301728
370
    35
100
AcDbVertex
100
AcDb2dVertex
 10
4.202021068996828
 20
-20.73779805501304
 30
0.0
  0
VERTEX
  5
2F5
330
2E7
100
AcDbEntity
  8
Layer 1
 62
   250
420
  2301728
370
    35
100
AcDbVertex
100
AcDb2dVertex
 10
4.353596793280682
 20
-20.73779805501304
 30
0.0
  0
VERTEX
  5
2F6
330
2E7
100
AcDbEntity
  8
Layer 1
 62
   250
420
  2301728
370
    35
100
AcDbVertex
100
AcDb2dVertex
 10
4.353596793280682
 20
-21.46456993950735
 30
0.0
  0
VERTEX
  5
2F7
330
2E7
100
AcDbEntity
  8
Layer 1
 62
   250
420
  2301728
370
    35
100
AcDbVertex
100
AcDb2dVertex
 10
4.202021068996828
 20
-21.46456993950735
 30
0.0
  0
VERTEX
  5
2F8
330
2E7
100
AcDbEntity
  8
Layer 1
 62
   250
420
  2301728
370
    35
100
AcDbVertex
100
AcDb2dVertex
 10
4.202021068996828
 20
-22.19134097629126
 30
0.0
  0
VERTEX
  5
2F9
330
2E7
100
AcDbEntity
  8
Layer 1
 62
   250
420
  2301728
370
    35
100
AcDbVertex
100
AcDb2dVertex
 10
4.353596793280682
 20
-22.19134097629126
 30
0.0
  0
VERTEX
  5
2FA
330
2E7
100
AcDbEntity
  8
Layer 1
 62
   250
420
  2301728
370
    35
100
AcDbVertex
100
AcDb2dVertex
 10
4.353596793280682
 20
-22.76653798421221
 30
0.0
  0
VERTEX
  5
2FB
330
2E7
100
AcDbEntity
  8
Layer 1
 62
   250
420
  2301728
370
    35
100
AcDbVertex
100
AcDb2dVertex
 10
4.890472200181724
 20
-22.76653798421221
 30
0.0
  0
VERTEX
  5
2FC
330
2E7
100
AcDbEntity
  8
Layer 1
 62
   250
420
  2301728
370
    35
100
AcDbVertex
100
AcDb2dVertex
 10
4.890472200181724
 20
-22.91811201307513
 30
0.0
  0
VERTEX
  5
2FD
330
2E7
100
AcDbEntity
  8
Layer 1
 62
   250
420
  2301728
370
    35
100
AcDbVertex
100
AcDb2dVertex
 10
5.578923331366619
 20
-22.91811201307513
 30
0.0
  0
VERTEX
  5
2FE
330
2E7
100
AcDbEntity
  8
Layer 1
 62
   250
420
  2301728
370
    35
100
AcDbVertex
100
AcDb2dVertex
 10
5.578923331366619
 20
-22.76653798421221
 30
0.0
  0
VERTEX
  5
2FF
330
2E7
100
AcDbEntity
  8
Layer 1
 62
   250
420
  2301728
370
    35
100
AcDbVertex
100
AcDb2dVertex
 10
6.267374462551516
 20
-22.76653798421221
 30
0.0
  0
VERTEX
  5
300
330
2E7
100
AcDbEntity
  8
Layer 1
 62
   250
420
  2301728
370
    35
100
AcDbVertex
100
AcDb2dVertex
 10
6.267374462551516
 20
-22.91811201307513
 30
0.0
  0
VERTEX
  5
301
330
2E7
100
AcDbEntity
  8
Layer 1
 62
   250
420
  2301728
370
    35
100
AcDbVertex
100
AcDb2dVertex
 10
6.955827289157418
 20
-22.91811201307513
 30
0.0
  0
VERTEX
  5
302
330
2E7
100
AcDbEntity
  8
Layer 1
 62
   250
420
  2301728
370
    35
100
AcDbVertex
100
AcDb2dVertex
 10
6.955827289157418
 20
-22.76653798421221
 30
0.0
  0
VERTEX
  5
303
330
2E7
100
AcDbEntity
  8
Layer 1
 62
   250
420
  2301728
370
    35
100
AcDbVertex
100
AcDb2dVertex
 10
7.492702696058459
 20
-22.76653798421221
 30
0.0
  0
VERTEX
  5
304
330
2E7
100
AcDbEntity
  8
Layer 1
 62
   250
420
  2301728
370
    35
100
AcDbVertex
100
AcDb2dVertex
 10
7.492702696058459
 20
-22.19134097629126
 30
0.0
  0
VERTEX
  5
305
330
2E7
100
AcDbEntity
  8
Layer 1
 62
   250
420
  2301728
370
    35
100
AcDbVertex
100
AcDb2dVertex
 10
7.644276724921307
 20
-22.19134097629126
 30
0.0
  0
VERTEX
  5
306
330
2E7
100
AcDbEntity
  8
Layer 1
 62
   250
420
  2301728
370
    35
100
AcDbVertex
100
AcDb2dVertex
 10
7.644276724921307
 20
-21.46456909179695
 30
0.0
  0
VERTEX
  5
307
330
2E7
100
AcDbEntity
  8
Layer 1
 62
   250
420
  2301728
370
    35
100
AcDbVertex
100
AcDb2dVertex
 10
7.492702696058459
 20
-21.46456909179695
 30
0.0
  0
VERTEX
  5
308
330
2E7
100
AcDbEntity
  8
Layer 1
 62
   250
420
  2301728
370
    35
100
AcDbVertex
100
AcDb2dVertex
 10
7.492702696058459
 20
-20.73779805501304
 30
0.0
  0
VERTEX
  5
309
330
2E7
100
AcDbEntity
  8
Layer 1
 62
   250
420
  2301728
370
    35
100
AcDbVertex
100
AcDb2dVertex
 10
7.644276724921307
 20
-20.73779805501304
 30
0.0
  0
VERTEX
  5
30A
330
2E7
100
AcDbEntity
  8
Layer 1
 62
   250
420
  2301728
370
    35
100
AcDbVertex
100
AcDb2dVertex
 10
7.644276724921307
 20
-20.01102701822916
 30
0.0
  0
VERTEX
  5
30B
330
2E7
100
AcDbEntity
  8
Layer 1
 62
   250
420
  2301728
370
    35
100
AcDbVertex
100
AcDb2dVertex
 10
7.492702696058459
 20
-20.01102701822916
 30
0.0
  0
VERTEX
  5
30C
330
2E7
100
AcDbEntity
  8
Layer 1
 62
   250
420
  2301728
370
    35
100
AcDbVertex
100
AcDb2dVertex
 10
7.492702696058459
 20
-19.43583001030818
 30
0.0
  0
SEQEND
  5
30D
330
2E7
100
AcDbEntity
  8
Layer 1
 62
   250
420
  2301728
370
    35
  0
POLYLINE
  5
30E
330
1F
100
AcDbEntity
  8
Layer 1
 62
   250
420
  2301728
370
    35
100
AcDb2dPolyline
 66
     1
 10
0.0
 20
0.0
 30
0.0
  0
VERTEX
  5
30F
330
30E
100
AcDbEntity
  8
Layer 1
 62
   250
420
  2301728
370
    35
100
AcDbVertex
100
AcDb2dVertex
 10
7.492702696058459
 20
-15.76916334364153
 30
0.0
  0
VERTEX
  5
310
330
30E
100
AcDbEntity
  8
Layer 1
 62
   250
420
  2301728
370
    35
100
AcDbVertex
100
AcDb2dVertex
 10
6.955827289157418
 20
-15.76916334364153
 30
0.0
  0
VERTEX
  5
311
330
30E
100
AcDbEntity
  8
Layer 1
 62
   250
420
  2301728
370
    35
100
AcDbVertex
100
AcDb2dVertex
 10
6.955827289157418
 20
-15.61758846706819
 30
0.0
  0
VERTEX
  5
312
330
30E
100
AcDbEntity
  8
Layer 1
 62
   250
420
  2301728
370
    35
100
AcDbVertex
100
AcDb2dVertex
 10
6.267374462551516
 20
-15.61758846706819
 30
0.0
  0
VERTEX
  5
313
330
30E
100
AcDbEntity
  8
Layer 1
 62
   250
420
  2301728
370
    35
100
AcDbVertex
100
AcDb2dVertex
 10
6.267374462551516
 20
-15.76916334364153
 30
0.0
  0
VERTEX
  5
314
330
30E
100
AcDbEntity
  8
Layer 1
 62
   250
420
  2301728
370
    35
100
AcDbVertex
100
AcDb2dVertex
 10
5.578923331366619
 20
-15.76916334364153
 30
0.0
  0
VERTEX
  5
315
330
30E
100
AcDbEntity
  8
Layer 1
 62
   250
420
  2301728
370
    35
100
AcDbVertex
100
AcDb2dVertex
 10
5.578923331366619
 20
-15.61758846706819
 30
0.0
  0
VERTEX
  5
316
330
30E
100
AcDbEntity
  8
Layer 1
 62
   250
420
  2301728
370
    35
100
AcDbVertex
100
AcDb2dVertex
 10
4.890472200181724
 20
-15.61758846706819
 30
0.0
  0
VERTEX
  5
317
330
30E
100
AcDbEntity
  8
Layer 1
 62
   250
420
  2301728
370
    35
100
AcDbVertex
100
AcDb2dVertex
 10
4.890472200181724
 20
-15.76916334364153
 30
0.0
  0
VERTEX
  5
318
330
30E
100
AcDbEntity
  8
Layer 1
 62
   250
420
  2301728
370
    35
100
AcDbVertex
100
AcDb2dVertex
 10
4.353596793280682
 20
-15.76916334364153
 30
0.0
  0
VERTEX
  5
319
330
30E
100
AcDbEntity
  8
Layer 1
 62
   250
420
  2301728
370
    35
100
AcDbVertex
100
AcDb2dVertex
 10
4.353596793280682
 20
-16.3443603515625
 30
0.0
  0
VERTEX
  5
31A
330
30E
100
AcDbEntity
  8
Layer 1
 62
   250
420
  2301728
370
    35
100
AcDbVertex
100
AcDb2dVertex
 10
4.202021068996828
 20
-16.3443603515625
 30
0.0
  0
VERTEX
  5
31B
330
30E
100
AcDbEntity
  8
Layer 1
 62
   250
420
  2301728
370
    35
100
AcDbVertex
100
AcDb2dVertex
 10
4.202021068996828
 20
-17.07113138834639
 30
0.0
  0
VERTEX
  5
31C
330
30E
100
AcDbEntity
  8
Layer 1
 62
   250
420
  2301728
370
    35
100
AcDbVertex
100
AcDb2dVertex
 10
4.353596793280682
 20
-17.07113138834639
 30
0.0
  0
VERTEX
  5
31D
330
30E
100
AcDbEntity
  8
Layer 1
 62
   250
420
  2301728
370
    35
100
AcDbVertex
100
AcDb2dVertex
 10
4.353596793280682
 20
-17.79790327284068
 30
0.0
  0
VERTEX
  5
31E
330
30E
100
AcDbEntity
  8
Layer 1
 62
   250
420
  2301728
370
    35
100
AcDbVertex
100
AcDb2dVertex
 10
4.202021068996828
 20
-17.79790327284068
 30
0.0
  0
VERTEX
  5
31F
330
30E
100
AcDbEntity
  8
Layer 1
 62
   250
420
  2301728
370
    35
100
AcDbVertex
100
AcDb2dVertex
 10
4.202021068996828
 20
-18.52467430962459
 30
0.0
  0
VERTEX
  5
320
330
30E
100
AcDbEntity
  8
Layer 1
 62
   250
420
  2301728
370
    35
100
AcDbVertex
100
AcDb2dVertex
 10
4.353596793280682
 20
-18.52467430962459
 30
0.0
  0
VERTEX
  5
321
330
30E
100
AcDbEntity
  8
Layer 1
 62
   250
420
  2301728
370
    35
100
AcDbVertex
100
AcDb2dVertex
 10
4.353596793280682
 20
-19.09987131754555
 30
0.0
  0
VERTEX
  5
322
330
30E
100
AcDbEntity
  8
Layer 1
 62
   250
420
  2301728
370
    35
100
AcDbVertex
100
AcDb2dVertex
 10
4.890472200181724
 20
-19.09987131754555
 30
0.0
  0
VERTEX
  5
323
330
30E
100
AcDbEntity
  8
Layer 1
 62
   250
420
  2301728
370
    35
100
AcDbVertex
100
AcDb2dVertex
 10
4.890472200181724
 20
-19.25144534640847
 30
0.0
  0
VERTEX
  5
324
330
30E
100
AcDbEntity
  8
Layer 1
 62
   250
420
  2301728
370
    35
100
AcDbVertex
100
AcDb2dVertex
 10
5.578923331366619
 20
-19.25144534640847
 30
0.0
  0
VERTEX
  5
325
330
30E
100
AcDbEntity
  8
Layer 1
 62
   250
420
  2301728
370
    35
100
AcDbVertex
100
AcDb2dVertex
 10
5.578923331366619
 20
-19.09987131754555
 30
0.0
  0
VERTEX
  5
326
330
30E
100
AcDbEntity
  8
Layer 1
 62
   250
420
  2301728
370
    35
100
AcDbVertex
100
AcDb2dVertex
 10
6.267374462551516
 20
-19.09987131754555
 30
0.0
  0
VERTEX
  5
327
330
30E
100
AcDbEntity
  8
Layer 1
 62
   250
420
  2301728
370
    35
100
AcDbVertex
100
AcDb2dVertex
 10
6.267374462551516
 20
-19.25144534640847
 30
0.0
  0
VERTEX
  5
328
330
30E
100
AcDbEntity
  8
Layer 1
 62
   250
420
  2301728
370
    35
100
AcDbVertex
100
AcDb2dVertex
 10
6.955827289157418
 20
-19.25144534640847
 30
0.0
  0
VERTEX
  5
329
330
30E
100
AcDbEntity
  8
Layer 1
 62
   250
420
  2301728
370
    35
100
AcDbVertex
100
AcDb2dVertex
 10
6.955827289157418
 20
-19.09987131754555
 30
0.0
  0
VERTEX
  5
32A
330
30E
100
AcDbEntity
  8
Layer 1
 62
   250
420
  2301728
370
    35
100
AcDbVertex
100
AcDb2dVertex
 10
7.492702696058459
 20
-19.09987131754555
 30
0.0
  0
VERTEX
  5
32B
330
30E
100
AcDbEntity
  8
Layer 1
 62
   250
420
  2301728
370
    35
100
AcDbVertex
100
AcDb2dVertex
 10
7.492702696058459
 20
-18.52467430962459
 30
0.0
  0
VERTEX
  5
32C
330
30E
100
AcDbEntity
  8
Layer 1
 62
   250
420
  2301728
370
    35
100
AcDbVertex
100
AcDb2dVertex
 10
7.644276724921307
 20
-18.52467430962459
 30
0.0
  0
VERTEX
  5
32D
330
30E
100
AcDbEntity
  8
Layer 1
 62
   250
420
  2301728
370
    35
100
AcDbVertex
100
AcDb2dVertex
 10
7.644276724921307
 20
-17.79790242513028
 30
0.0
  0
VERTEX
  5
32E
330
30E
100
AcDbEntity
  8
Layer 1
 62
   250
420
  2301728
370
    35
100
AcDbVertex
100
AcDb2dVertex
 10
7.492702696058459
 20
-17.79790242513028
 30
0.0
  0
VERTEX
  5
32F
330
30E
100
AcDbEntity
  8
Layer 1
 62
   250
420
  2301728
370
    35
100
AcDbVertex
100
AcDb2dVertex
 10
7.492702696058459
 20
-17.07113138834639
 30
0.0
  0
VERTEX
  5
330
330
30E
100
AcDbEntity
  8
Layer 1
 62
   250
420
  2301728
370
    35
100
AcDbVertex
100
AcDb2dVertex
 10
7.644276724921307
 20
-17.07113138834639
 30
0.0
  0
VERTEX
  5
331
330
30E
100
AcDbEntity
  8
Layer 1
 62
   250
420
  2301728
370
    35
100
AcDbVertex
100
AcDb2dVertex
 10
7.644276724921307
 20
-16.3443603515625
 30
0.0
  0
VERTEX
  5
332
330
30E
100
AcDbEntity
  8
Layer 1
 62
   250
420
  2301728
370
    35
100
AcDbVertex
100
AcDb2dVertex
 10
7.492702696058459
 20
-16.3443603515625
 30
0.0
  0
VERTEX
  5
333
330
30E
100
AcDbEntity
  8
Layer 1
 62
   250
420
  2301728
370
    35
100
AcDbVertex
100
AcDb2dVertex
 10
7.492702696058459
 20
-15.76916334364153
 30
0.0
  0
SEQEND
  5
334
330
30E
100
AcDbEntity
  8
Layer 1
 62
   250
420
  2301728
370
    35
  0
SPLINE
  5
335
330
1F
100
AcDbEntity
  8
Layer 1
 62
   250
420
  2301728
370
    35
100
AcDbSpline
210
0.0
220
0.0
230
1.0
 70
    11
 71
     3
 72
    59
 73
    55
 74
     0
 42
0.0000000001
 43
0.0000000001
 12
1.0
 22
0.0
 32
0.0
 13
1.0
 23
0.0
 33
0.0
 40
0.0
 40
0.0
 40
0.0
 40
0.0
 40
1.0
 40
1.0
 40
1.0
 40
2.0
 40
2.0
 40
2.0
 40
3.0
 40
3.0
 40
3.0
 40
4.0
 40
4.0
 40
4.0
 40
5.0
 40
5.0
 40
5.0
 40
6.0
 40
6.0
 40
6.0
 40
7.0
 40
7.0
 40
7.0
 40
8.0
 40
8.0
 40
8.0
 40
9.0
 40
9.0
 40
9.0
 40
10.0
 40
10.0
 40
10.0
 40
11.0
 40
11.0
 40
11.0
 40
12.0
 40
12.0
 40
12.0
 40
13.0
 40
13.0
 40
13.0
 40
14.0
 40
14.0
 40
14.0
 40
15.0
 40
15.0
 40
15.0
 40
16.0
 40
16.0
 40
16.0
 40
17.0
 40
17.0
 40
17.0
 40
18.0
 40
18.0
 40
18.0
 40
18.0
 10
26.21128506130642
 20
-7.48970709906684
 30
0.0
 10
26.21128506130642
 20
-7.48970709906684
 30
0.0
 10
24.83333333333333
 20
-7.48970709906684
 30
0.0
 10
24.83333333333333
 20
-7.48970709906684
 30
0.0
 10
24.83333333333333
 20
-7.48970709906684
 30
0.0
 10
24.83333333333333
 20
-8.670809427897135
 30
0.0
 10
24.83333333333333
 20
-8.670809427897135
 30
0.0
 10
24.83333333333333
 20
-8.77952660454644
 30
0.0
 10
24.74520026312934
 20
-8.867659674750433
 30
0.0
 10
24.63648139105903
 20
-8.867659674750433
 30
0.0
 10
24.63648139105903
 20
-8.867659674750433
 30
0.0
 10
19.12467108832465
 20
-8.867659674750433
 30
0.0
 10
19.12467108832465
 20
-8.867659674750433
 30
0.0
 10
19.01595391167535
 20
-8.867659674750433
 30
0.0
 10
18.92782084147135
 20
-8.77952660454644
 30
0.0
 10
18.92782084147135
 20
-8.670809427897135
 30
0.0
 10
18.92782084147135
 20
-8.670809427897135
 30
0.0
 10
18.92782084147135
 20
-7.48970709906684
 30
0.0
 10
18.92782084147135
 20
-7.48970709906684
 30
0.0
 10
18.92782084147135
 20
-7.48970709906684
 30
0.0
 10
17.54986911349826
 20
-7.48970709906684
 30
0.0
 10
17.54986911349826
 20
-7.48970709906684
 30
0.0
 10
17.33243476019965
 20
-7.48970709906684
 30
0.0
 10
17.15616861979166
 20
-7.665973239474826
 30
0.0
 10
17.15616861979166
 20
-7.883407592773438
 30
0.0
 10
17.15616861979166
 20
-7.883407592773438
 30
0.0
 10
17.15616861979166
 20
-11.42671457926432
 30
0.0
 10
17.15616861979166
 20
-11.42671457926432
 30
0.0
 10
17.15616861979166
 20
-11.42671457926432
 30
0.0
 10
18.14041985405816
 20
-11.42671457926432
 30
0.0
 10
18.14041985405816
 20
-11.42671457926432
 30
0.0
 10
18.14041985405816
 20
-11.42671457926432
 30
0.0
 10
18.14041985405816
 20
-11.22986433241102
 30
0.0
 10
18.14041985405816
 20
-11.22986433241102
 30
0.0
 10
18.14041985405816
 20
-11.01242913140191
 30
0.0
 10
18.31668429904514
 20
-10.83616383870443
 30
0.0
 10
18.53412034776476
 20
-10.83616383870443
 30
0.0
 10
18.53412034776476
 20
-10.83616383870443
 30
0.0
 10
25.22703382703993
 20
-10.83616383870443
 30
0.0
 10
25.22703382703993
 20
-10.83616383870443
 30
0.0
 10
25.44446818033854
 20
-10.83616383870443
 30
0.0
 10
25.62073432074653
 20
-11.01242913140191
 30
0.0
 10
25.62073432074653
 20
-11.22986433241102
 30
0.0
 10
25.62073432074653
 20
-11.22986433241102
 30
0.0
 10
25.62073432074653
 20
-11.42671457926432
 30
0.0
 10
25.62073432074653
 20
-11.42671457926432
 30
0.0
 10
25.62073432074653
 20
-11.42671457926432
 30
0.0
 10
26.60498725043403
 20
-11.42671457926432
 30
0.0
 10
26.60498725043403
 20
-11.42671457926432
 30
0.0
 10
26.60498725043403
 20
-11.42671457926432
 30
0.0
 10
26.60498725043403
 20
-7.883407592773438
 30
0.0
 10
26.60498725043403
 20
-7.883407592773438
 30
0.0
 10
26.60498725043403
 20
-7.665973239474826
 30
0.0
 10
26.42872111002604
 20
-7.48970709906684
 30
0.0
 10
26.21128506130642
 20
-7.48970709906684
 30
0.0
  0
SPLINE
  5
336
330
1F
100
AcDbEntity
  8
Layer 1
 62
    93
420
  6929733
370
    35
100
AcDbSpline
210
0.0
220
0.0
230
1.0
 70
    11
 71
     3
 72
    17
 73
    13
 74
     0
 42
0.0000000001
 43
0.0000000001
 12
1.0
 22
0.0
 32
0.0
 13
1.0
 23
0.0
 33
0.0
 40
0.0
 40
0.0
 40
0.0
 40
0.0
 40
1.0
 40
1.0
 40
1.0
 40
2.0
 40
2.0
 40
2.0
 40
3.0
 40
3.0
 40
3.0
 40
4.0
 40
4.0
 40
4.0
 40
4.0
 10
18.0980970137407
 20
-8.178683569239562
 30
0.0
 10
18.0980970137407
 20
-8.147699090166231
 30
0.0
 10
18.07297913060941
 20
-8.122581207034841
 30
0.0
 10
18.041994651536
 20
-8.122581207034841
 30
0.0
 10
18.01101017246254
 20
-8.122581207034841
 30
0.0
 10
17.98589228933125
 20
-8.147699090166231
 30
0.0
 10
17.98589228933125
 20
-8.178683569239562
 30
0.0
 10
17.98589228933125
 20
-8.20966804831303
 30
0.0
 10
18.01101017246254
 20
-8.234785931444296
 30
0.0
 10
18.041994651536
 20
-8.234785931444296
 30
0.0
 10
18.07297913060941
 20
-8.234785931444296
 30
0.0
 10
18.0980970137407
 20
-8.20966804831303
 30
0.0
 10
18.0980970137407
 20
-8.178683569239562
 30
0.0
  0
SPLINE
  5
337
330
1F
100
AcDbEntity
  8
Layer 1
 62
    93
420
  6929733
370
    35
100
AcDbSpline
210
0.0
220
0.0
230
1.0
 70
    11
 71
     3
 72
    17
 73
    13
 74
     0
 42
0.0000000001
 43
0.0000000001
 12
1.0
 22
0.0
 32
0.0
 13
1.0
 23
0.0
 33
0.0
 40
0.0
 40
0.0
 40
0.0
 40
0.0
 40
1.0
 40
1.0
 40
1.0
 40
2.0
 40
2.0
 40
2.0
 40
3.0
 40
3.0
 40
3.0
 40
4.0
 40
4.0
 40
4.0
 40
4.0
 10
20.46030150500934
 20
-9.851911915696366
 30
0.0
 10
20.46030150500934
 20
-9.820927436622897
 30
0.0
 10
20.43518362187806
 20
-9.795809553491646
 30
0.0
 10
20.40419914280463
 20
-9.795809553491646
 30
0.0
 10
20.37321466373119
 20
-9.795809553491646
 30
0.0
 10
20.3480967805999
 20
-9.820927436622897
 30
0.0
 10
20.3480967805999
 20
-9.851911915696366
 30
0.0
 10
20.3480967805999
 20
-9.882896394769709
 30
0.0
 10
20.37321466373119
 20
-9.908014277901101
 30
0.0
 10
20.40419914280463
 20
-9.908014277901101
 30
0.0
 10
20.43518362187806
 20
-9.908014277901101
 30
0.0
 10
20.46030150500934
 20
-9.882896394769709
 30
0.0
 10
20.46030150500934
 20
-9.851911915696366
 30
0.0
  0
SPLINE
  5
338
330
1F
100
AcDbEntity
  8
Layer 1
 62
    93
420
  6929733
370
    35
100
AcDbSpline
210
0.0
220
0.0
230
1.0
 70
    11
 71
     3
 72
    17
 73
    13
 74
     0
 42
0.0000000001
 43
0.0000000001
 12
1.0
 22
0.0
 32
0.0
 13
1.0
 23
0.0
 33
0.0
 40
0.0
 40
0.0
 40
0.0
 40
0.0
 40
1.0
 40
1.0
 40
1.0
 40
2.0
 40
2.0
 40
2.0
 40
3.0
 40
3.0
 40
3.0
 40
4.0
 40
4.0
 40
4.0
 40
4.0
 10
23.30085268609404
 20
-9.85191191576012
 30
0.0
 10
23.30085268609543
 20
-9.82092743668665
 30
0.0
 10
23.32597056922786
 20
-9.795809553556511
 30
0.0
 10
23.35695504830129
 20
-9.7958095535579
 30
0.0
 10
23.38793952737472
 20
-9.79580955355929
 30
0.0
 10
23.41305741050487
 20
-9.820927436691653
 30
0.0
 10
23.41305741050348
 20
-9.851911915765122
 30
0.0
 10
23.41305741050209
 20
-9.88289639483859
 30
0.0
 10
23.38793952736968
 20
-9.908014277968732
 30
0.0
 10
23.35695504829625
 20
-9.908014277967341
 30
0.0
 10
23.32597056922282
 20
-9.908014277965952
 30
0.0
 10
23.30085268609265
 20
-9.88289639483345
 30
0.0
 10
23.30085268609404
 20
-9.85191191576012
 30
0.0
  0
SPLINE
  5
339
330
1F
100
AcDbEntity
  8
Layer 1
 62
    93
420
  6929733
370
    35
100
AcDbSpline
210
0.0
220
0.0
230
1.0
 70
    11
 71
     3
 72
    17
 73
    13
 74
     0
 42
0.0000000001
 43
0.0000000001
 12
1.0
 22
0.0
 32
0.0
 13
1.0
 23
0.0
 33
0.0
 40
0.0
 40
0.0
 40
0.0
 40
0.0
 40
1.0
 40
1.0
 40
1.0
 40
2.0
 40
2.0
 40
2.0
 40
3.0
 40
3.0
 40
3.0
 40
4.0
 40
4.0
 40
4.0
 40
4.0
 10
25.7796309199356
 20
-8.178683569239562
 30
0.0
 10
25.7796309199356
 20
-8.147699090166231
 30
0.0
 10
25.7545130368043
 20
-8.122581207034841
 30
0.0
 10
25.72352855773089
 20
-8.122581207034841
 30
0.0
 10
25.69254407865744
 20
-8.122581207034841
 30
0.0
 10
25.66742619552615
 20
-8.147699090166231
 30
0.0
 10
25.66742619552615
 20
-8.178683569239562
 30
0.0
 10
25.66742619552615
 20
-8.20966804831303
 30
0.0
 10
25.69254407865744
 20
-8.234785931444296
 30
0.0
 10
25.72352855773089
 20
-8.234785931444296
 30
0.0
 10
25.7545130368043
 20
-8.234785931444296
 30
0.0
 10
25.7796309199356
 20
-8.20966804831303
 30
0.0
 10
25.7796309199356
 20
-8.178683569239562
 30
0.0
  0
SPLINE
  5
33A
330
1F
100
AcDbEntity
  8
Layer 1
 62
   250
420
  2301728
370
    35
100
AcDbSpline
210
0.0
220
0.0
230
1.0
 70
    11
 71
     3
 72
    59
 73
    55
 74
     0
 42
0.0000000001
 43
0.0000000001
 12
1.0
 22
0.0
 32
0.0
 13
1.0
 23
0.0
 33
0.0
 40
0.0
 40
0.0
 40
0.0
 40
0.0
 40
1.0
 40
1.0
 40
1.0
 40
2.0
 40
2.0
 40
2.0
 40
3.0
 40
3.0
 40
3.0
 40
4.0
 40
4.0
 40
4.0
 40
5.0
 40
5.0
 40
5.0
 40
6.0
 40
6.0
 40
6.0
 40
7.0
 40
7.0
 40
7.0
 40
8.0
 40
8.0
 40
8.0
 40
9.0
 40
9.0
 40
9.0
 40
10.0
 40
10.0
 40
10.0
 40
11.0
 40
11.0
 40
11.0
 40
12.0
 40
12.0
 40
12.0
 40
13.0
 40
13.0
 40
13.0
 40
14.0
 40
14.0
 40
14.0
 40
15.0
 40
15.0
 40
15.0
 40
16.0
 40
16.0
 40
16.0
 40
17.0
 40
17.0
 40
17.0
 40
18.0
 40
18.0
 40
18.0
 40
18.0
 10
26.21128506130642
 20
-11.55260297987196
 30
0.0
 10
26.21128506130642
 20
-11.55260297987196
 30
0.0
 10
24.83333333333333
 20
-11.55260297987196
 30
0.0
 10
24.83333333333333
 20
-11.55260297987196
 30
0.0
 10
24.83333333333333
 20
-11.55260297987196
 30
0.0
 10
24.83333333333333
 20
-12.73370530870226
 30
0.0
 10
24.83333333333333
 20
-12.73370530870226
 30
0.0
 10
24.83333333333333
 20
-12.84242248535156
 30
0.0
 10
24.74520026312934
 20
-12.93055555555556
 30
0.0
 10
24.63648139105903
 20
-12.93055555555556
 30
0.0
 10
24.63648139105903
 20
-12.93055555555556
 30
0.0
 10
19.12467108832465
 20
-12.93055555555556
 30
0.0
 10
19.12467108832465
 20
-12.93055555555556
 30
0.0
 10
19.01595391167535
 20
-12.93055555555556
 30
0.0
 10
18.92782084147135
 20
-12.84242248535156
 30
0.0
 10
18.92782084147135
 20
-12.73370530870226
 30
0.0
 10
18.92782084147135
 20
-12.73370530870226
 30
0.0
 10
18.92782084147135
 20
-11.55260297987196
 30
0.0
 10
18.92782084147135
 20
-11.55260297987196
 30
0.0
 10
18.92782084147135
 20
-11.55260297987196
 30
0.0
 10
17.54986911349826
 20
-11.55260297987196
 30
0.0
 10
17.54986911349826
 20
-11.55260297987196
 30
0.0
 10
17.33243476019965
 20
-11.55260297987196
 30
0.0
 10
17.15616861979166
 20
-11.72886912027995
 30
0.0
 10
17.15616861979166
 20
-11.94630347357856
 30
0.0
 10
17.15616861979166
 20
-11.94630347357856
 30
0.0
 10
17.15616861979166
 20
-15.48961046006944
 30
0.0
 10
17.15616861979166
 20
-15.48961046006944
 30
0.0
 10
17.15616861979166
 20
-15.48961046006944
 30
0.0
 10
18.14041985405816
 20
-15.48961046006944
 30
0.0
 10
18.14041985405816
 20
-15.48961046006944
 30
0.0
 10
18.14041985405816
 20
-15.48961046006944
 30
0.0
 10
18.14041985405816
 20
-15.29276021321614
 30
0.0
 10
18.14041985405816
 20
-15.29276021321614
 30
0.0
 10
18.14041985405816
 20
-15.07532501220703
 30
0.0
 10
18.31668429904514
 20
-14.89905971950955
 30
0.0
 10
18.53412034776476
 20
-14.89905971950955
 30
0.0
 10
18.53412034776476
 20
-14.89905971950955
 30
0.0
 10
25.22703382703993
 20
-14.89905971950955
 30
0.0
 10
25.22703382703993
 20
-14.89905971950955
 30
0.0
 10
25.44446818033854
 20
-14.89905971950955
 30
0.0
 10
25.62073432074653
 20
-15.07532501220703
 30
0.0
 10
25.62073432074653
 20
-15.29276021321614
 30
0.0
 10
25.62073432074653
 20
-15.29276021321614
 30
0.0
 10
25.62073432074653
 20
-15.48961046006944
 30
0.0
 10
25.62073432074653
 20
-15.48961046006944
 30
0.0
 10
25.62073432074653
 20
-15.48961046006944
 30
0.0
 10
26.60498725043403
 20
-15.48961046006944
 30
0.0
 10
26.60498725043403
 20
-15.48961046006944
 30
0.0
 10
26.60498725043403
 20
-15.48961046006944
 30
0.0
 10
26.60498725043403
 20
-11.94630347357856
 30
0.0
 10
26.60498725043403
 20
-11.94630347357856
 30
0.0
 10
26.60498725043403
 20
-11.72886912027995
 30
0.0
 10
26.42872111002604
 20
-11.55260297987196
 30
0.0
 10
26.21128506130642
 20
-11.55260297987196
 30
0.0
  0
SPLINE
  5
33B
330
1F
100
AcDbEntity
  8
Layer 1
 62
    93
420
  6929733
370
    35
100
AcDbSpline
210
0.0
220
0.0
230
1.0
 70
    11
 71
     3
 72
    17
 73
    13
 74
     0
 42
0.0000000001
 43
0.0000000001
 12
1.0
 22
0.0
 32
0.0
 13
1.0
 23
0.0
 33
0.0
 40
0.0
 40
0.0
 40
0.0
 40
0.0
 40
1.0
 40
1.0
 40
1.0
 40
2.0
 40
2.0
 40
2.0
 40
3.0
 40
3.0
 40
3.0
 40
4.0
 40
4.0
 40
4.0
 40
4.0
 10
18.0980970137407
 20
-12.24157945004468
 30
0.0
 10
18.0980970137407
 20
-12.21059497097135
 30
0.0
 10
18.07297913060941
 20
-12.18547708783996
 30
0.0
 10
18.041994651536
 20
-12.18547708783996
 30
0.0
 10
18.01101017246254
 20
-12.18547708783996
 30
0.0
 10
17.98589228933125
 20
-12.21059497097135
 30
0.0
 10
17.98589228933125
 20
-12.24157945004468
 30
0.0
 10
17.98589228933125
 20
-12.27256392911815
 30
0.0
 10
18.01101017246254
 20
-12.29768181224942
 30
0.0
 10
18.041994651536
 20
-12.29768181224942
 30
0.0
 10
18.07297913060941
 20
-12.29768181224942
 30
0.0
 10
18.0980970137407
 20
-12.27256392911815
 30
0.0
 10
18.0980970137407
 20
-12.24157945004468
 30
0.0
  0
SPLINE
  5
33C
330
1F
100
AcDbEntity
  8
Layer 1
 62
    93
420
  6929733
370
    35
100
AcDbSpline
210
0.0
220
0.0
230
1.0
 70
    11
 71
     3
 72
    17
 73
    13
 74
     0
 42
0.0000000001
 43
0.0000000001
 12
1.0
 22
0.0
 32
0.0
 13
1.0
 23
0.0
 33
0.0
 40
0.0
 40
0.0
 40
0.0
 40
0.0
 40
1.0
 40
1.0
 40
1.0
 40
2.0
 40
2.0
 40
2.0
 40
3.0
 40
3.0
 40
3.0
 40
4.0
 40
4.0
 40
4.0
 40
4.0
 10
20.46030150500934
 20
-13.91480779650149
 30
0.0
 10
20.46030150500934
 20
-13.88382331742802
 30
0.0
 10
20.43518362187806
 20
-13.85870543429677
 30
0.0
 10
20.40419914280463
 20
-13.85870543429677
 30
0.0
 10
20.37321466373119
 20
-13.85870543429677
 30
0.0
 10
20.3480967805999
 20
-13.88382331742802
 30
0.0
 10
20.3480967805999
 20
-13.91480779650149
 30
0.0
 10
20.3480967805999
 20
-13.94579227557483
 30
0.0
 10
20.37321466373119
 20
-13.97091015870622
 30
0.0
 10
20.40419914280463
 20
-13.97091015870622
 30
0.0
 10
20.43518362187806
 20
-13.97091015870622
 30
0.0
 10
20.46030150500934
 20
-13.94579227557483
 30
0.0
 10
20.46030150500934
 20
-13.91480779650149
 30
0.0
  0
SPLINE
  5
33D
330
1F
100
AcDbEntity
  8
Layer 1
 62
    93
420
  6929733
370
    35
100
AcDbSpline
210
0.0
220
0.0
230
1.0
 70
    11
 71
     3
 72
    17
 73
    13
 74
     0
 42
0.0000000001
 43
0.0000000001
 12
1.0
 22
0.0
 32
0.0
 13
1.0
 23
0.0
 33
0.0
 40
0.0
 40
0.0
 40
0.0
 40
0.0
 40
1.0
 40
1.0
 40
1.0
 40
2.0
 40
2.0
 40
2.0
 40
3.0
 40
3.0
 40
3.0
 40
4.0
 40
4.0
 40
4.0
 40
4.0
 10
23.30085268609404
 20
-13.91480779656524
 30
0.0
 10
23.30085268609543
 20
-13.88382331749177
 30
0.0
 10
23.32597056922786
 20
-13.85870543436163
 30
0.0
 10
23.35695504830129
 20
-13.85870543436302
 30
0.0
 10
23.38793952737472
 20
-13.85870543436441
 30
0.0
 10
23.41305741050487
 20
-13.88382331749678
 30
0.0
 10
23.41305741050348
 20
-13.91480779657024
 30
0.0
 10
23.41305741050209
 20
-13.94579227564371
 30
0.0
 10
23.38793952736968
 20
-13.97091015877385
 30
0.0
 10
23.35695504829625
 20
-13.97091015877246
 30
0.0
 10
23.32597056922282
 20
-13.97091015877107
 30
0.0
 10
23.30085268609265
 20
-13.94579227563857
 30
0.0
 10
23.30085268609404
 20
-13.91480779656524
 30
0.0
  0
SPLINE
  5
33E
330
1F
100
AcDbEntity
  8
Layer 1
 62
    93
420
  6929733
370
    35
100
AcDbSpline
210
0.0
220
0.0
230
1.0
 70
    11
 71
     3
 72
    17
 73
    13
 74
     0
 42
0.0000000001
 43
0.0000000001
 12
1.0
 22
0.0
 32
0.0
 13
1.0
 23
0.0
 33
0.0
 40
0.0
 40
0.0
 40
0.0
 40
0.0
 40
1.0
 40
1.0
 40
1.0
 40
2.0
 40
2.0
 40
2.0
 40
3.0
 40
3.0
 40
3.0
 40
4.0
 40
4.0
 40
4.0
 40
4.0
 10
25.7796309199356
 20
-12.24157945004468
 30
0.0
 10
25.7796309199356
 20
-12.21059497097135
 30
0.0
 10
25.7545130368043
 20
-12.18547708783996
 30
0.0
 10
25.72352855773089
 20
-12.18547708783996
 30
0.0
 10
25.69254407865744
 20
-12.18547708783996
 30
0.0
 10
25.66742619552615
 20
-12.21059497097135
 30
0.0
 10
25.66742619552615
 20
-12.24157945004468
 30
0.0
 10
25.66742619552615
 20
-12.27256392911815
 30
0.0
 10
25.69254407865744
 20
-12.29768181224942
 30
0.0
 10
25.72352855773089
 20
-12.29768181224942
 30
0.0
 10
25.7545130368043
 20
-12.29768181224942
 30
0.0
 10
25.7796309199356
 20
-12.27256392911815
 30
0.0
 10
25.7796309199356
 20
-12.24157945004468
 30
0.0
  0
SPLINE
  5
33F
330
1F
100
AcDbEntity
  8
Layer 1
 62
   250
420
  2301728
370
    35
100
AcDbSpline
210
0.0
220
0.0
230
1.0
 70
    11
 71
     3
 72
    59
 73
    55
 74
     0
 42
0.0000000001
 43
0.0000000001
 12
1.0
 22
0.0
 32
0.0
 13
1.0
 23
0.0
 33
0.0
 40
0.0
 40
0.0
 40
0.0
 40
0.0
 40
1.0
 40
1.0
 40
1.0
 40
2.0
 40
2.0
 40
2.0
 40
3.0
 40
3.0
 40
3.0
 40
4.0
 40
4.0
 40
4.0
 40
5.0
 40
5.0
 40
5.0
 40
6.0
 40
6.0
 40
6.0
 40
7.0
 40
7.0
 40
7.0
 40
8.0
 40
8.0
 40
8.0
 40
9.0
 40
9.0
 40
9.0
 40
10.0
 40
10.0
 40
10.0
 40
11.0
 40
11.0
 40
11.0
 40
12.0
 40
12.0
 40
12.0
 40
13.0
 40
13.0
 40
13.0
 40
14.0
 40
14.0
 40
14.0
 40
15.0
 40
15.0
 40
15.0
 40
16.0
 40
16.0
 40
16.0
 40
17.0
 40
17.0
 40
17.0
 40
18.0
 40
18.0
 40
18.0
 40
18.0
 10
26.21128506130642
 20
-15.74802398681641
 30
0.0
 10
26.21128506130642
 20
-15.74802398681641
 30
0.0
 10
24.83333333333333
 20
-15.74802398681641
 30
0.0
 10
24.83333333333333
 20
-15.74802398681641
 30
0.0
 10
24.83333333333333
 20
-15.74802398681641
 30
0.0
 10
24.83333333333333
 20
-16.9291263156467
 30
0.0
 10
24.83333333333333
 20
-16.9291263156467
 30
0.0
 10
24.83333333333333
 20
-17.03784349229601
 30
0.0
 10
24.74520026312934
 20
-17.1259765625
 30
0.0
 10
24.63648139105903
 20
-17.1259765625
 30
0.0
 10
24.63648139105903
 20
-17.1259765625
 30
0.0
 10
19.12467108832465
 20
-17.1259765625
 30
0.0
 10
19.12467108832465
 20
-17.1259765625
 30
0.0
 10
19.01595391167535
 20
-17.1259765625
 30
0.0
 10
18.92782084147135
 20
-17.03784349229601
 30
0.0
 10
18.92782084147135
 20
-16.9291263156467
 30
0.0
 10
18.92782084147135
 20
-16.9291263156467
 30
0.0
 10
18.92782084147135
 20
-15.74802398681641
 30
0.0
 10
18.92782084147135
 20
-15.74802398681641
 30
0.0
 10
18.92782084147135
 20
-15.74802398681641
 30
0.0
 10
17.54986911349826
 20
-15.74802398681641
 30
0.0
 10
17.54986911349826
 20
-15.74802398681641
 30
0.0
 10
17.33243476019965
 20
-15.74802398681641
 30
0.0
 10
17.15616861979166
 20
-15.92429012722439
 30
0.0
 10
17.15616861979166
 20
-16.141724480523
 30
0.0
 10
17.15616861979166
 20
-16.141724480523
 30
0.0
 10
17.15616861979166
 20
-19.68503146701389
 30
0.0
 10
17.15616861979166
 20
-19.68503146701389
 30
0.0
 10
17.15616861979166
 20
-19.68503146701389
 30
0.0
 10
18.14041985405816
 20
-19.68503146701389
 30
0.0
 10
18.14041985405816
 20
-19.68503146701389
 30
0.0
 10
18.14041985405816
 20
-19.68503146701389
 30
0.0
 10
18.14041985405816
 20
-19.48818122016059
 30
0.0
 10
18.14041985405816
 20
-19.48818122016059
 30
0.0
 10
18.14041985405816
 20
-19.27074601915147
 30
0.0
 10
18.31668429904514
 20
-19.09448072645399
 30
0.0
 10
18.53412034776476
 20
-19.09448072645399
 30
0.0
 10
18.53412034776476
 20
-19.09448072645399
 30
0.0
 10
25.22703382703993
 20
-19.09448072645399
 30
0.0
 10
25.22703382703993
 20
-19.09448072645399
 30
0.0
 10
25.44446818033854
 20
-19.09448072645399
 30
0.0
 10
25.62073432074653
 20
-19.27074601915147
 30
0.0
 10
25.62073432074653
 20
-19.48818122016059
 30
0.0
 10
25.62073432074653
 20
-19.48818122016059
 30
0.0
 10
25.62073432074653
 20
-19.68503146701389
 30
0.0
 10
25.62073432074653
 20
-19.68503146701389
 30
0.0
 10
25.62073432074653
 20
-19.68503146701389
 30
0.0
 10
26.60498725043403
 20
-19.68503146701389
 30
0.0
 10
26.60498725043403
 20
-19.68503146701389
 30
0.0
 10
26.60498725043403
 20
-19.68503146701389
 30
0.0
 10
26.60498725043403
 20
-16.141724480523
 30
0.0
 10
26.60498725043403
 20
-16.141724480523
 30
0.0
 10
26.60498725043403
 20
-15.92429012722439
 30
0.0
 10
26.42872111002604
 20
-15.74802398681641
 30
0.0
 10
26.21128506130642
 20
-15.74802398681641
 30
0.0
  0
SPLINE
  5
340
330
1F
100
AcDbEntity
  8
Layer 1
 62
    93
420
  6929733
370
    35
100
AcDbSpline
210
0.0
220
0.0
230
1.0
 70
    11
 71
     3
 72
    17
 73
    13
 74
     0
 42
0.0000000001
 43
0.0000000001
 12
1.0
 22
0.0
 32
0.0
 13
1.0
 23
0.0
 33
0.0
 40
0.0
 40
0.0
 40
0.0
 40
0.0
 40
1.0
 40
1.0
 40
1.0
 40
2.0
 40
2.0
 40
2.0
 40
3.0
 40
3.0
 40
3.0
 40
4.0
 40
4.0
 40
4.0
 40
4.0
 10
18.16010488775646
 20
-16.43700045698918
 30
0.0
 10
18.16010488775646
 20
-16.37176997472569
 30
0.0
 10
18.10722513379946
 20
-16.31889022076871
 30
0.0
 10
18.04199465153599
 20
-16.31889022076871
 30
0.0
 10
17.9767641692725
 20
-16.31889022076871
 30
0.0
 10
17.92388441531551
 20
-16.37176997472569
 30
0.0
 10
17.92388441531551
 20
-16.43700045698918
 30
0.0
 10
17.92388441531551
 20
-16.50223093925266
 30
0.0
 10
17.9767641692725
 20
-16.55511069320965
 30
0.0
 10
18.04199465153599
 20
-16.55511069320965
 30
0.0
 10
18.10722513379946
 20
-16.55511069320965
 30
0.0
 10
18.16010488775646
 20
-16.50223093925266
 30
0.0
 10
18.16010488775646
 20
-16.43700045698918
 30
0.0
  0
SPLINE
  5
341
330
1F
100
AcDbEntity
  8
Layer 1
 62
    93
420
  6929733
370
    35
100
AcDbSpline
210
0.0
220
0.0
230
1.0
 70
    11
 71
     3
 72
    17
 73
    13
 74
     0
 42
0.0000000001
 43
0.0000000001
 12
1.0
 22
0.0
 32
0.0
 13
1.0
 23
0.0
 33
0.0
 40
0.0
 40
0.0
 40
0.0
 40
0.0
 40
1.0
 40
1.0
 40
1.0
 40
2.0
 40
2.0
 40
2.0
 40
3.0
 40
3.0
 40
3.0
 40
4.0
 40
4.0
 40
4.0
 40
4.0
 10
20.52230937902508
 20
-18.11022880344586
 30
0.0
 10
20.52230937902508
 20
-18.04499832118237
 30
0.0
 10
20.46942962506808
 20
-17.99211856722539
 30
0.0
 10
20.40419914280461
 20
-17.99211856722539
 30
0.0
 10
20.33896866054114
 20
-17.99211856722539
 30
0.0
 10
20.28608890658414
 20
-18.04499832118237
 30
0.0
 10
20.28608890658414
 20
-18.11022880344586
 30
0.0
 10
20.28608890658414
 20
-18.17545928570934
 30
0.0
 10
20.33896866054114
 20
-18.22833903966633
 30
0.0
 10
20.40419914280461
 20
-18.22833903966633
 30
0.0
 10
20.46942962506808
 20
-18.22833903966633
 30
0.0
 10
20.52230937902508
 20
-18.17545928570934
 30
0.0
 10
20.52230937902508
 20
-18.11022880344586
 30
0.0
  0
SPLINE
  5
342
330
1F
100
AcDbEntity
  8
Layer 1
 62
    93
420
  6929733
370
    35
100
AcDbSpline
210
0.0
220
0.0
230
1.0
 70
    11
 71
     3
 72
    17
 73
    13
 74
     0
 42
0.0000000001
 43
0.0000000001
 12
1.0
 22
0.0
 32
0.0
 13
1.0
 23
0.0
 33
0.0
 40
0.0
 40
0.0
 40
0.0
 40
0.0
 40
1.0
 40
1.0
 40
1.0
 40
2.0
 40
2.0
 40
2.0
 40
3.0
 40
3.0
 40
3.0
 40
4.0
 40
4.0
 40
4.0
 40
4.0
 10
23.23884481207828
 20
-18.11022880350684
 30
0.0
 10
23.23884481208121
 20
-18.04499832124336
 30
0.0
 10
23.29172456604057
 20
-17.99211856728875
 30
0.0
 10
23.35695504830406
 20
-17.99211856729168
 30
0.0
 10
23.42218553056753
 20
-17.99211856729458
 30
0.0
 10
23.47506528452215
 20
-18.04499832125397
 30
0.0
 10
23.47506528451923
 20
-18.11022880351743
 30
0.0
 10
23.4750652845163
 20
-18.17545928578091
 30
0.0
 10
23.42218553055693
 20
-18.22833903973555
 30
0.0
 10
23.35695504829346
 20
-18.22833903973262
 30
0.0
 10
23.29172456602997
 20
-18.22833903972969
 30
0.0
 10
23.23884481207536
 20
-18.17545928577033
 30
0.0
 10
23.23884481207828
 20
-18.11022880350684
 30
0.0
  0
SPLINE
  5
343
330
1F
100
AcDbEntity
  8
Layer 1
 62
    93
420
  6929733
370
    35
100
AcDbSpline
210
0.0
220
0.0
230
1.0
 70
    11
 71
     3
 72
    17
 73
    13
 74
     0
 42
0.0000000001
 43
0.0000000001
 12
1.0
 22
0.0
 32
0.0
 13
1.0
 23
0.0
 33
0.0
 40
0.0
 40
0.0
 40
0.0
 40
0.0
 40
1.0
 40
1.0
 40
1.0
 40
2.0
 40
2.0
 40
2.0
 40
3.0
 40
3.0
 40
3.0
 40
4.0
 40
4.0
 40
4.0
 40
4.0
 10
25.84163879395136
 20
-16.43700045698918
 30
0.0
 10
25.84163879395136
 20
-16.37176997472569
 30
0.0
 10
25.78875903999435
 20
-16.31889022076871
 30
0.0
 10
25.72352855773089
 20
-16.31889022076871
 30
0.0
 10
25.6582980754674
 20
-16.31889022076871
 30
0.0
 10
25.60541832151042
 20
-16.37176997472569
 30
0.0
 10
25.60541832151042
 20
-16.43700045698918
 30
0.0
 10
25.60541832151042
 20
-16.50223093925266
 30
0.0
 10
25.6582980754674
 20
-16.55511069320965
 30
0.0
 10
25.72352855773089
 20
-16.55511069320965
 30
0.0
 10
25.78875903999435
 20
-16.55511069320965
 30
0.0
 10
25.84163879395136
 20
-16.50223093925266
 30
0.0
 10
25.84163879395136
 20
-16.43700045698918
 30
0.0
  0
ENDSEC
  0
SECTION
  2
OBJECTS
  0
DICTIONARY
  5
C
330
0
100
AcDbDictionary
281
     1
  3
ACAD_GROUP
350
D
  3
ACAD_LAYOUT
350
1A
  3
ACAD_MATERIAL
350
3B
  3
ACAD_MLEADERSTYLE
350
345
  3
ACAD_MLINESTYLE
350
17
  3
ACAD_PLOTSETTINGS
350
19
  3
ACAD_PLOTSTYLENAME
350
E
  3
ACAD_TABLESTYLE
350
344
  3
ACAD_VISUALSTYLE
350
2A
  0
SUN
  5
3F
330
29
100
AcDbSun
 90
        1
290
     0
 63
     7
421
 16777215
 40
1.0
291
     1
 91
  2455826
 92
 54000000
292
     0
 70
     2
 71
   256
280
     1
  0
DICTIONARY
  5
D
102
{ACAD_REACTORS
330
C
102
}
330
C
100
AcDbDictionary
281
     1
  0
DICTIONARY
  5
1A
102
{ACAD_REACTORS
330
C
102
}
330
C
100
AcDbDictionary
281
     1
  3
Layout1
350
1E
  3
Layout2
350
26
  3
Model
350
22
  0
DICTIONARY
  5
3B
102
{ACAD_REACTORS
330
C
102
}
330
C
100
AcDbDictionary
281
     1
  3
ByBlock
350
3D
  3
ByLayer
350
3C
  3
Global
350
3E
  0
DICTIONARY
  5
345
102
{ACAD_REACTORS
330
C
102
}
330
C
100
AcDbDictionary
281
     1
  0
DICTIONARY
  5
17
102
{ACAD_REACTORS
330
C
102
}
330
C
100
AcDbDictionary
281
     1
  3
Standard
350
18
  0
DICTIONARY
  5
19
102
{ACAD_REACTORS
330
C
102
}
330
C
100
AcDbDictionary
281
     1
  0
ACDBDICTIONARYWDFLT
  5
E
102
{ACAD_REACTORS
330
C
102
}
330
C
100
AcDbDictionary
281
     1
  3
Normal
350
F
100
AcDbDictionaryWithDefault
340
F
  0
DICTIONARY
  5
344
102
{ACAD_REACTORS
330
C
102
}
330
C
100
AcDbDictionary
281
     1
  0
DICTIONARY
  5
2A
102
{ACAD_REACTORS
330
C
102
}
330
C
100
AcDbDictionary
281
     1
  3
2dWireframe
350
2F
  3
3D Hidden
350
31
  3
3dWireframe
350
30
  3
Basic
350
32
  3
Brighten
350
36
  3
ColorChange
350
3A
  3
Conceptual
350
34
  3
Dim
350
35
  3
Facepattern
350
39
  3
Flat
350
2B
  3
FlatWithEdges
350
2C
  3
Gouraud
350
2D
  3
GouraudWithEdges
350
2E
  3
Linepattern
350
38
  3
Realistic
350
33
  3
Thicken
350
37
  0
LAYOUT
  5
1E
102
{ACAD_REACTORS
330
1A
102
}
330
1A
100
AcDbPlotSettings
  1

  2
none_device
  4

  6

 40
0.0
 41
0.0
 42
0.0
 43
0.0
 44
0.0
 45
0.0
 46
0.0
 47
0.0
 48
0.0
 49
0.0
140
0.0
141
0.0
142
1.0
143
1.0
 70
   688
 72
     0
 73
     0
 74
     5
  7

 75
    16
 76
     0
 77
     2
 78
   300
147
1.0
148
0.0
149
0.0
100
AcDbLayout
  1
Layout1
 70
     1
 71
     1
 10
0.0
 20
0.0
 11
12.0
 21
9.0
 12
0.0
 22
0.0
 32
0.0
 14
1.000000000000000E+20
 24
1.000000000000000E+20
 34
1.000000000000000E+20
 15
-1.000000000000000E+20
 25
-1.000000000000000E+20
 35
-1.000000000000000E+20
146
0.0
 13
0.0
 23
0.0
 33
0.0
 16
1.0
 26
0.0
 36
0.0
 17
0.0
 27
1.0
 37
0.0
 76
     0
330
1B
  0
LAYOUT
  5
26
102
{ACAD_REACTORS
330
1A
102
}
330
1A
100
AcDbPlotSettings
  1

  2
none_device
  4

  6

 40
0.0
 41
0.0
 42
0.0
 43
0.0
 44
0.0
 45
0.0
 46
0.0
 47
0.0
 48
0.0
 49
0.0
140
0.0
141
0.0
142
1.0
143
1.0
 70
   688
 72
     0
 73
     0
 74
     5
  7

 75
    16
 76
     0
 77
     2
 78
   300
147
1.0
148
0.0
149
0.0
100
AcDbLayout
  1
Layout2
 70
     1
 71
     2
 10
0.0
 20
0.0
 11
0.0
 21
0.0
 12
0.0
 22
0.0
 32
0.0
 14
0.0
 24
0.0
 34
0.0
 15
0.0
 25
0.0
 35
0.0
146
0.0
 13
0.0
 23
0.0
 33
0.0
 16
1.0
 26
0.0
 36
0.0
 17
0.0
 27
1.0
 37
0.0
 76
     0
330
23
  0
LAYOUT
  5
22
102
{ACAD_REACTORS
330
1A
102
}
330
1A
100
AcDbPlotSettings
  1

  2
none_device
  4

  6

 40
0.0
 41
0.0
 42
0.0
 43
0.0
 44
0.0
 45
0.0
 46
0.0
 47
0.0
 48
0.0
 49
0.0
140
0.0
141
0.0
142
1.0
143
1.0
 70
  1712
 72
     0
 73
     0
 74
     0
  7

 75
     0
 76
     0
 77
     2
 78
   300
147
1.0
148
0.0
149
0.0
100
AcDbLayout
  1
Model
 70
     1
 71
     0
 10
0.0
 20
0.0
 11
12.0
 21
9.0
 12
0.0
 22
0.0
 32
0.0
 14
1.000000000000000E+20
 24
1.000000000000000E+20
 34
1.000000000000000E+20
 15
-1.000000000000000E+20
 25
-1.000000000000000E+20
 35
-1.000000000000000E+20
146
0.0
 13
0.0
 23
0.0
 33
0.0
 16
1.0
 26
0.0
 36
0.0
 17
0.0
 27
1.0
 37
0.0
 76
     0
330
1F
331
29
  0
MATERIAL
  5
3D
102
{ACAD_REACTORS
330
3B
102
}
330
3B
100
AcDbMaterial
  1
ByBlock
 72
     1
 94
      127
  0
MATERIAL
  5
3C
102
{ACAD_REACTORS
330
3B
102
}
330
3B
100
AcDbMaterial
  1
ByLayer
 72
     1
 94
      127
  0
MATERIAL
  5
3E
102
{ACAD_REACTORS
330
3B
102
}
330
3B
100
AcDbMaterial
  1
Global
 72
     1
 94
      127
  0
MLINESTYLE
  5
18
102
{ACAD_REACTORS
330
17
102
}
330
17
100
AcDbMlineStyle
  2
Standard
 70
     0
  3

 62
   256
 51
90.0
 52
90.0
 71
     2
 49
0.5
 62
   256
  6
BYLAYER
 49
-0.5
 62
   256
  6
BYLAYER
  0
ACDBPLACEHOLDER
  5
F
102
{ACAD_REACTORS
330
E
102
}
330
E
  0
VISUALSTYLE
  5
2F
102
{ACAD_REACTORS
330
2A
102
}
330
2A
100
AcDbVisualStyle
  2
2dWireframe
 70
     4
177
     2
291
     0
 71
     0
176
     1
 72
     2
176
     1
 73
     0
176
     1
 90
        0
176
     1
 40
-0.6
176
     1
 41
-30.0
176
     1
 62
     5
 63
     7
421
 16777215
176
     1
 74
     1
176
     1
 91
        4
176
     1
 64
     7
176
     1
 65
   257
176
     1
 75
     1
176
     1
175
     1
176
     1
 42
1.0
176
     1
 92
        0
176
     1
 66
   257
176
     1
 43
1.0
176
     1
 76
     1
176
     1
 77
     6
176
     1
 78
     2
176
     1
 67
     7
176
     1
 79
     5
176
     1
170
     0
176
     1
171
     0
176
     1
290
     0
176
     1
 93
        1
176
     1
 44
0.0
176
     1
173
     0
176
     1
  0
VISUALSTYLE
  5
31
102
{ACAD_REACTORS
330
2A
102
}
330
2A
100
AcDbVisualStyle
  2
3D Hidden
 70
     6
177
     2
291
     0
 71
     1
176
     1
 72
     2
176
     1
 73
     2
176
     1
 90
        0
176
     1
 40
-0.6
176
     1
 41
-30.0
176
     1
 62
     5
 63
     7
421
 16777215
176
     1
 74
     2
176
     1
 91
        2
176
     1
 64
     7
176
     1
 65
   257
176
     1
 75
     2
176
     1
175
     1
176
     1
 42
40.0
176
     1
 92
        0
176
     1
 66
   257
176
     1
 43
1.0
176
     1
 76
     1
176
     1
 77
     6
176
     1
 78
     2
176
     1
 67
     7
176
     1
 79
     3
176
     1
170
     0
176
     1
171
     0
176
     1
290
     0
176
     1
 93
        1
176
     1
 44
0.0
176
     1
173
     0
176
     1
  0
VISUALSTYLE
  5
30
102
{ACAD_REACTORS
330
2A
102
}
330
2A
100
AcDbVisualStyle
  2
3dWireframe
 70
     5
177
     2
291
     0
 71
     0
176
     1
 72
     2
176
     1
 73
     0
176
     1
 90
        0
176
     1
 40
-0.6
176
     1
 41
-30.0
176
     1
 62
     5
 63
     7
421
 16777215
176
     1
 74
     1
176
     1
 91
        4
176
     1
 64
     7
176
     1
 65
   257
176
     1
 75
     1
176
     1
175
     1
176
     1
 42
1.0
176
     1
 92
        0
176
     1
 66
   257
176
     1
 43
1.0
176
     1
 76
     1
176
     1
 77
     6
176
     1
 78
     2
176
     1
 67
     7
176
     1
 79
     5
176
     1
170
     0
176
     1
171
     0
176
     1
290
     0
176
     1
 93
        1
176
     1
 44
0.0
176
     1
173
     0
176
     1
  0
VISUALSTYLE
  5
32
102
{ACAD_REACTORS
330
2A
102
}
330
2A
100
AcDbVisualStyle
  2
Basic
 70
     7
177
     2
291
     1
 71
     1
176
     1
 72
     0
176
     1
 73
     1
176
     1
 90
        0
176
     1
 40
-0.6
176
     1
 41
-30.0
176
     1
 62
     5
 63
     7
421
 16777215
176
     1
 74
     0
176
     1
 91
        4
176
     1
 64
     7
176
     1
 65
   257
176
     1
 75
     1
176
     1
175
     1
176
     1
 42
1.0
176
     1
 92
        8
176
     1
 66
     7
176
     1
 43
1.0
176
     1
 76
     1
176
     1
 77
     6
176
     1
 78
     2
176
     1
 67
     7
176
     1
 79
     5
176
     1
170
     0
176
     1
171
     0
176
     1
290
     0
176
     1
 93
        1
176
     1
 44
0.0
176
     1
173
     0
176
     1
  0
VISUALSTYLE
  5
36
102
{ACAD_REACTORS
330
2A
102
}
330
2A
100
AcDbVisualStyle
  2
Brighten
 70
    12
177
     2
291
     1
 71
     2
176
     1
 72
     2
176
     1
 73
     0
176
     1
 90
        0
176
     1
 40
-0.6
176
     1
 41
-30.0
176
     1
 62
     5
 63
     7
421
 16777215
176
     1
 74
     1
176
     1
 91
        4
176
     1
 64
     7
176
     1
 65
   257
176
     1
 75
     1
176
     1
175
     1
176
     1
 42
1.0
176
     1
 92
        8
176
     1
 66
     7
176
     1
 43
1.0
176
     1
 76
     1
176
     1
 77
     6
176
     1
 78
     2
176
     1
 67
     7
176
     1
 79
     5
176
     1
170
     0
176
     1
171
     0
176
     1
290
     0
176
     1
 93
        1
176
     1
 44
50.0
176
     1
173
     0
176
     1
  0
VISUALSTYLE
  5
3A
102
{ACAD_REACTORS
330
2A
102
}
330
2A
100
AcDbVisualStyle
  2
ColorChange
 70
    16
177
     2
291
     1
 71
     2
176
     1
 72
     2
176
     1
 73
     3
176
     1
 90
        0
176
     1
 40
-0.6
176
     1
 41
-30.0
176
     1
 62
     5
 63
     8
421
  8421504
176
     1
 74
     1
176
     1
 91
        4
176
     1
 64
     7
176
     1
 65
   257
176
     1
 75
     1
176
     1
175
     1
176
     1
 42
1.0
176
     1
 92
        8
176
     1
 66
     8
424
  8421504
176
     1
 43
1.0
176
     1
 76
     1
176
     1
 77
     6
176
     1
 78
     2
176
     1
 67
     7
176
     1
 79
     5
176
     1
170
     0
176
     1
171
     0
176
     1
290
     0
176
     1
 93
        1
176
     1
 44
0.0
176
     1
173
     0
176
     1
  0
VISUALSTYLE
  5
34
102
{ACAD_REACTORS
330
2A
102
}
330
2A
100
AcDbVisualStyle
  2
Conceptual
 70
     9
177
     2
291
     0
 71
     3
176
     1
 72
     2
176
     1
 73
     0
176
     1
 90
        0
176
     1
 40
-0.6
176
     1
 41
-30.0
176
     1
 62
     5
 63
     7
421
 16777215
176
     1
 74
     2
176
     1
 91
        2
176
     1
 64
     7
176
     1
 65
   257
176
     1
 75
     1
176
     1
175
     1
176
     1
 42
40.0
176
     1
 92
        8
176
     1
 66
     7
176
     1
 43
1.0
176
     1
 76
     1
176
     1
 77
     6
176
     1
 78
     2
176
     1
 67
     7
176
     1
 79
     3
176
     1
170
     0
176
     1
171
     0
176
     1
290
     0
176
     1
 93
        1
176
     1
 44
0.0
176
     1
173
     0
176
     1
  0
VISUALSTYLE
  5
35
102
{ACAD_REACTORS
330
2A
102
}
330
2A
100
AcDbVisualStyle
  2
Dim
 70
    11
177
     2
291
     1
 71
     2
176
     1
 72
     2
176
     1
 73
     0
176
     1
 90
        0
176
     1
 40
-0.6
176
     1
 41
-30.0
176
     1
 62
     5
 63
     7
421
 16777215
176
     1
 74
     1
176
     1
 91
        4
176
     1
 64
     7
176
     1
 65
   257
176
     1
 75
     1
176
     1
175
     1
176
     1
 42
1.0
176
     1
 92
        8
176
     1
 66
     7
176
     1
 43
1.0
176
     1
 76
     1
176
     1
 77
     6
176
     1
 78
     2
176
     1
 67
     7
176
     1
 79
     5
176
     1
170
     0
176
     1
171
     0
176
     1
290
     0
176
     1
 93
        1
176
     1
 44
-50.0
176
     1
173
     0
176
     1
  0
VISUALSTYLE
  5
39
102
{ACAD_REACTORS
330
2A
102
}
330
2A
100
AcDbVisualStyle
  2
Facepattern
 70
    15
177
     2
291
     1
 71
     2
176
     1
 72
     2
176
     1
 73
     0
176
     1
 90
        0
176
     1
 40
-0.6
176
     1
 41
-30.0
176
     1
 62
     5
 63
     7
421
 16777215
176
     1
 74
     1
176
     1
 91
        4
176
     1
 64
     7
176
     1
 65
   257
176
     1
 75
     1
176
     1
175
     1
176
     1
 42
1.0
176
     1
 92
        8
176
     1
 66
     7
176
     1
 43
1.0
176
     1
 76
     1
176
     1
 77
     6
176
     1
 78
     2
176
     1
 67
     7
176
     1
 79
     5
176
     1
170
     0
176
     1
171
     0
176
     1
290
     0
176
     1
 93
        1
176
     1
 44
0.0
176
     1
173
     0
176
     1
  0
VISUALSTYLE
  5
2B
102
{ACAD_REACTORS
330
2A
102
}
330
2A
100
AcDbVisualStyle
  2
Flat
 70
     0
177
     2
291
     1
 71
     2
176
     1
 72
     1
176
     1
 73
     1
176
     1
 90
        2
176
     1
 40
-0.6
176
     1
 41
30.0
176
     1
 62
     5
 63
     7
421
 16777215
176
     1
 74
     0
176
     1
 91
        4
176
     1
 64
     7
176
     1
 65
   257
176
     1
 75
     1
176
     1
175
     1
176
     1
 42
1.0
176
     1
 92
        8
176
     1
 66
     7
176
     1
 43
1.0
176
     1
 76
     1
176
     1
 77
     6
176
     1
 78
     2
176
     1
 67
     7
176
     1
 79
     5
176
     1
170
     0
176
     1
171
     0
176
     1
290
     0
176
     1
 93
       13
176
     1
 44
0.0
176
     1
173
     0
176
     1
  0
VISUALSTYLE
  5
2C
102
{ACAD_REACTORS
330
2A
102
}
330
2A
100
AcDbVisualStyle
  2
FlatWithEdges
 70
     1
177
     2
291
     1
 71
     2
176
     1
 72
     1
176
     1
 73
     1
176
     1
 90
        2
176
     1
 40
-0.6
176
     1
 41
30.0
176
     1
 62
     5
 63
     7
421
 16777215
176
     1
 74
     1
176
     1
 91
        4
176
     1
 64
     7
176
     1
 65
   257
176
     1
 75
     1
176
     1
175
     1
176
     1
 42
1.0
176
     1
 92
        0
176
     1
 66
   257
176
     1
 43
1.0
176
     1
 76
     1
176
     1
 77
     6
176
     1
 78
     2
176
     1
 67
     7
176
     1
 79
     5
176
     1
170
     0
176
     1
171
     0
176
     1
290
     0
176
     1
 93
       13
176
     1
 44
0.0
176
     1
173
     0
176
     1
  0
VISUALSTYLE
  5
2D
102
{ACAD_REACTORS
330
2A
102
}
330
2A
100
AcDbVisualStyle
  2
Gouraud
 70
     2
177
     2
291
     1
 71
     2
176
     1
 72
     2
176
     1
 73
     1
176
     1
 90
        2
176
     1
 40
-0.6
176
     1
 41
30.0
176
     1
 62
     5
 63
     7
421
 16777215
176
     1
 74
     0
176
     1
 91
        4
176
     1
 64
     7
176
     1
 65
   257
176
     1
 75
     1
176
     1
175
     1
176
     1
 42
1.0
176
     1
 92
        0
176
     1
 66
     7
176
     1
 43
1.0
176
     1
 76
     1
176
     1
 77
     6
176
     1
 78
     2
176
     1
 67
     7
176
     1
 79
     5
176
     1
170
     0
176
     1
171
     0
176
     1
290
     0
176
     1
 93
       13
176
     1
 44
0.0
176
     1
173
     0
176
     1
  0
VISUALSTYLE
  5
2E
102
{ACAD_REACTORS
330
2A
102
}
330
2A
100
AcDbVisualStyle
  2
GouraudWithEdges
 70
     3
177
     2
291
     1
 71
     2
176
     1
 72
     2
176
     1
 73
     1
176
     1
 90
        2
176
     1
 40
-0.6
176
     1
 41
30.0
176
     1
 62
     5
 63
     7
421
 16777215
176
     1
 74
     1
176
     1
 91
        4
176
     1
 64
     7
176
     1
 65
   257
176
     1
 75
     1
176
     1
175
     1
176
     1
 42
1.0
176
     1
 92
        0
176
     1
 66
   257
176
     1
 43
1.0
176
     1
 76
     1
176
     1
 77
     6
176
     1
 78
     2
176
     1
 67
     7
176
     1
 79
     5
176
     1
170
     0
176
     1
171
     0
176
     1
290
     0
176
     1
 93
       13
176
     1
 44
0.0
176
     1
173
     0
176
     1
  0
VISUALSTYLE
  5
38
102
{ACAD_REACTORS
330
2A
102
}
330
2A
100
AcDbVisualStyle
  2
Linepattern
 70
    14
177
     2
291
     1
 71
     2
176
     1
 72
     2
176
     1
 73
     0
176
     1
 90
        0
176
     1
 40
-0.6
176
     1
 41
-30.0
176
     1
 62
     5
 63
     7
421
 16777215
176
     1
 74
     1
176
     1
 91
        4
176
     1
 64
     7
176
     1
 65
   257
176
     1
 75
     7
176
     1
175
     7
176
     1
 42
1.0
176
     1
 92
        8
176
     1
 66
     7
176
     1
 43
1.0
176
     1
 76
     1
176
     1
 77
     6
176
     1
 78
     2
176
     1
 67
     7
176
     1
 79
     5
176
     1
170
     0
176
     1
171
     0
176
     1
290
     0
176
     1
 93
        1
176
     1
 44
0.0
176
     1
173
     0
176
     1
  0
VISUALSTYLE
  5
33
102
{ACAD_REACTORS
330
2A
102
}
330
2A
100
AcDbVisualStyle
  2
Realistic
 70
     8
177
     2
291
     0
 71
     2
176
     1
 72
     2
176
     1
 73
     0
176
     1
 90
        0
176
     1
 40
-0.6
176
     1
 41
-30.0
176
     1
 62
     5
 63
     7
421
 16777215
176
     1
 74
     1
176
     1
 91
        0
176
     1
 64
     7
176
     1
 65
   257
176
     1
 75
     1
176
     1
175
     1
176
     1
 42
1.0
176
     1
 92
        8
176
     1
 66
     8
424
  7895160
176
     1
 43
1.0
176
     1
 76
     1
176
     1
 77
     6
176
     1
 78
     2
176
     1
 67
     7
176
     1
 79
     5
176
     1
170
     0
176
     1
171
     0
176
     1
290
     0
176
     1
 93
       13
176
     1
 44
0.0
176
     1
173
     0
176
     1
  0
VISUALSTYLE
  5
37
102
{ACAD_REACTORS
330
2A
102
}
330
2A
100
AcDbVisualStyle
  2
Thicken
 70
    13
177
     2
291
     1
 71
     2
176
     1
 72
     2
176
     1
 73
     0
176
     1
 90
        0
176
     1
 40
-0.6
176
     1
 41
-30.0
176
     1
 62
     5
 63
     7
421
 16777215
176
     1
 74
     1
176
     1
 91
        4
176
     1
 64
     7
176
     1
 65
   257
176
     1
 75
     1
176
     1
175
     1
176
     1
 42
1.0
176
     1
 92
       12
176
     1
 66
     7
176
     1
 43
1.0
176
     1
 76
     1
176
     1
 77
     6
176
     1
 78
     2
176
     1
 67
     7
176
     1
 79
     5
176
     1
170
     0
176
     1
171
     0
176
     1
290
     0
176
     1
 93
        1
176
     1
 44
0.0
176
     1
173
     0
176
     1
  0
ENDSEC
  0
EOF
